» » »

Janet Jackson, Let's Wait Awhile Tabs (ver.1)

Artists:  A B C D E F G H I J K L M N O P Q R S T U V W X Y Z # 

Let's Wait Awhile Tabs (ver.1)

Janet Jackson Tabs
 Rating:
4/5 (4 votes)
Let's Wait Awhile lessons Tabs too difficult? Try these video lessons and learn fast
1
                This is one of my favorite songs. I couldn't find a decent tab for this song, 
so I decided to tab it myself. It's pretty easy once you get the flow. 
Hope you guys like it. Cheers!

To my sweet Melanie, I will see you soon, my love. 

Janet Jackson - Let's Wait Awhile

Capo 4

INTRO
|-----------------------------------------|
|-----5----4h5-----2--2h3--2--------------|
|-----6----4-------2--2----2--2--1--------|
|-----7----4h6-----2--2h4--2--2--2--------|
|---5----4-------2---------------2--------|
|-----------------------------2--0--------|

|-------------------------------------------|
|-----5----4h5-----2--2h3--2-----2h3p-------|
|-----6----4-------2--2----2---------2---1--|
|-----7----4h6-----2--2h4--2-------------2--|
|---5----4-------2-----------------------2--|
|------------------------------2---------0--|

VERSE
|--------------------------------------------------------------------|
|-----5----4h5-----5----4h5-----5-----4h5-----2--2h3--2-----2h3------|
|-----6----4-------6----4-------6-----4-------2--2----2--------2--1--|
|-----7----4h6-----7----4h6-----7-----4h6-----2--2h4--2-----------2--|  (2x)
|---5----4-------5----4-------5-----4-------2---------------------2--|
|---------------------------------------------------------2-------0--|

CHORUS
|---0----2----x-------||---0----2----2-x--x--x---|
|---0----2----x-------||---0----2----2-x--x--x---|
|---2----2----x-----1-||---2----2----2-x--x--x---|
|---2----0----2-x---2-||---2----0----2-x--x--x---|
|---0----0----2-x---2-||---0----0----2-x--x--x---|
|---x----x----2-x---0-||---x----x----2-x--x--x---|

|-------------------------------------------|
|-----5----4h5-----2--2h3--2-----2h3p-------|
|-----6----4-------2--2----2---------2---1--|
|-----7----4h6-----2--2h4--2-------------2--|
|---5----4-------2-----------------------2--|
|------------------------------2---------0--|


LYRICS:

There's something I want to tell you
There's something I think that you should know
It's not that I shouldn't really love you
Let's take it slow

When we get to know each other
And we're both feeling much stronger
Then let's try to talk it over
Let's wait awhile longer

Let's wait awhile before it's too late
Let's wait awhile before we go too far

Remember that special night
When all of the stars were shining bright
We made our first endeavour
To stay together

We made our very first promise
To love, to share, and be real honest
But on that very first night
It wasn't quite right

Let's wait awhile before it's too late
Let's wait awhile, our love will be great
Let's wait awhile before we go too far

I didn't really know not to let all my feelings show
To save some for later so our love can be greater
You said you would always love me
Remember I said the same thing too
You don't have to be frightened with my love
Because I'll never give up on you
Let's wait awhile, awhile before it's too late
You know you can't rush love,love

Let's just take our time
With love so good, we shouldn't rush it
We need to slow it down
 
            
Submit corrections

comments powered by Disqus
↑ Back to top | Janet Jackson Tabs for Let's Wait Awhile. Lyrics for acoustic guitar and electric guitar. 1 Tablatures and chords are parodies/interpretations of the original songs. You may use it for private study, scholarship, research or language learning purposes only