» » »

Janet Jackson, Control Bass tabs (ver.1)

Artists:  A B C D E F G H I J K L M N O P Q R S T U V W X Y Z # 

Control Bass tabs (ver.1)

Janet Jackson Tabs
 Rating:
4/5 (4 votes)
Control lessons Tabs too difficult? Try these video lessons and learn fast
                Janet Jackson
Control (For Bass)
Tuning: Half - Step Down (Eb Ab Db Gb)


Intro:
|-----------------|------------------|-----------|----------|-----------------------|
|-----------------|------------------|-----------|----------|-----------------------|
|-----------------|------------------|-------2-5-|----------|-----------------------|
|-0--0--0---0--0--|--0--0--0---0--0--|-0-3-5-----|-0--0--0--|--0--0--0---0--0-------|

|----------------------|------------|--------------|----------------|---------------|
|----------------------|------------|--------------|----------------|---------------|
|----------------------|------------|--------------|--------------5-|---------------|
|-0--0h=3-x-3--0--3-0--|-0-3-0-3-5--|-0--0--3-3-0--|-0-3-0-3-5--3---|-0---3-3-------|

|-----------|--------------|
|-----------|--------------|
|-----------|--------------|
|-0-3-0-3-5-|--0--0--3-3---|


Verse: (0:32)
|-----------------|------------------|-----------------|------------------|
|-----------------|------------------|-----------------|------------------|
|-----------------|------------------|-----------------|------------------|
|-0--0--0---0--0--|--0--0--0---0--0--|-0--0--0---0--0--|--0--0--0---0--0--|


[Chorus]


Interlude: (1:04)
|-------------------|-----------------|-----------|-------------------------------------|
|-------------------|-----------------|-----------|-------------------------------------|
|-------------------|-----------------|-----------|--------------5----------------------|
|-0--0--0-3--0--3-0-|--0-3-0-3-5--0---|-0--3-3-0--|-0-3-0-3-5--x----3-0--3-3--0---------|

|----------------|--------------------|
|----------------|--------------------|
|----------------|--------------------|
|-0-3-0-3-5--x-0-|--0--3-3-0----------|


Verse 2: 
|-----------------|------------------|-----------------|------------------|
|-----------------|------------------|-----------------|------------------|
|-----------------|------------------|-----------------|------------------|
|-0--0--0---0--0--|--0--0--0---0--0--|-0--0--0---0--0--|--0--0--0---0--0--|


Chorus: (1:36)
|-------------------------|
|-------------------------|
|-------2-5---------------|
|-0-3-5------0--0--0------| (x4)

Legend:
h - hammeron
x - mute
            
Submit corrections

comments powered by Disqus
↑ Back to top | Janet Jackson Bass for Control. Lyrics for acoustic guitar and electric guitar. Tablatures and chords are parodies/interpretations of the original songs. You may use it for private study, scholarship, research or language learning purposes only