» » »

Janes Addiction, Three Days Tabs (ver.2)

Artists:  A B C D E F G H I J K L M N O P Q R S T U V W X Y Z # 

Three Days Tabs (ver.2)

Janes Addiction Tabs
 Rating:
4/5 (4 votes)
Three Days lessons Tabs too difficult? Try these video lessons and learn fast
1
                At this moment you should be with us...

Three days was the morning.  My focus was three days old.
My head, it landed to the sounds of cricket bows.
I am a proud man anyway.  Covered now by three days.

Three ways was the morning.  Three lovers in three ways.
We knew when she landed, three days she'd stay.
I am a proud man anyway.  Covered now by three days.

We saw shadows of the morning light the shadows of the evening sun
        till the shadows and the lights were one.
Shadows of the morning light the shadows of the evening sun
        till the shadows and the lights were one.

True hunting is over.  No herds to follow.
Without game, men prey on each other.
The family weakens by the bite we swallow.

True leaders are gone.  of land and people.
We choose no kin but adopted strangers.
The family weakens by the lengths we travel.

All of us with wings!  (six times)

Erotic Jesus lays with his Marys.  Loves his Marys.
Bits of puzzle, fitting each other.  All now with wings!
"Oh my Marys!  Never wonder.  Night is shelter for nudity's shiver."
All now with wings.


Three days...
  B?      D?                 B?      D? 
-------------------------------------------------0-------------------
--------------3\2------------------------3\2-------------------------
------0-----2-----2--------------0-----2-----2-----------------------
----4---4-0---------4----------4---4-0---------4---------------------
--2--------------------------2---------------------------------------

Three days...
----------4-4--------------------------------------------------------
--------------5/7\4-5/7\4--------------------------------------------
--0/2-2-2--------------------0/2-2-2-2-2-----------------------------
-----------------------------------------3-3-2-----------------------

True hunting...
--------2---------------2--------------------------------------------
----2-5-----2-5-2---2-5-----2-5-2------------------------------------
--0-------0-------0-------0------------------------------------------

Erotic Jesus...
  B  A  G  E      E     E      E      E     E     E     E
--7--5--3--0---------------------------------------------------------
--7--5--3--0---------------------------------------------------------
--8--6--4--1-------------------9------9-----9------------------------
--9--7--5--2------2-----2------9------9-----9-----2-----2------------
--9--7--5--2------2-----2------7------7-----7-----2-----2------------
--7--5--3--0------0-----0------0------0-----0-----0-----0------------
            
Submit corrections

comments powered by Disqus
↑ Back to top | Janes Addiction Tabs for Three Days. Lyrics for acoustic guitar and electric guitar. 1 Tablatures and chords are parodies/interpretations of the original songs. You may use it for private study, scholarship, research or language learning purposes only