» » »

Janes Addiction, Three Days Bass tabs (ver.1)

Artists:  A B C D E F G H I J K L M N O P Q R S T U V W X Y Z # 

Three Days Bass tabs (ver.1)

Janes Addiction Tabs
 Rating:
4/5 (4 votes)
Three Days lessons Tabs too difficult? Try these video lessons and learn fast
                Jane's Addiction
Ritual De Lo Habitual

NOTATION:

 h ==> Hammer On
 H ==> Hammer Off
 ^ ==> Hold Note
 / ==> Slide
 x ==> Palm Mute


	* VERSE

G:|---------4-4--0h2H0---0h2H0---|-------------------------|
D:|--------------------4-------4-|-------------------------|:   Repeat
A:|-0h2-2-2----------------------|-0h2-2-2-2--2-2----------|:several times
E:|------------------------------|----------------3-3--2-2-|


	*CHORUS 1 (after "covered now by three daaaays")  {NOT 100% SURE OF THIS PART}

G:|-----------2h4-2---------|---------4-4--0h2H0---0h2H0---0h2H0-|
D:|-----------------4-2H0---|--------------------4-------4-------|
A:|-2--2-2--0---------------|-0h2-2-2----------------------------|
E:|-------------------------|------------------------------------|

G:|------------------------|--------------|
D:|-4--4--2-2--------------|--------------| Then back
A:|-----------2-2--2-2-2-2-|--------------|  to VERSE
E:|------------------------|-3-3^---2--2-2|


	*CHORUS 2 ("shadows of the morning light")  {NOT 100% SURE OF THIS PART}

G:|----------------|-------------4/-|----------------|------|
D:|----------------|-----------4----|----------------|------|: Play 2 times
A:|-2--2-2-0-0-2-0-|-------2-2------|-2--2-2-0-0-0-0-|--2^--|:
E:|----------------|-0--0-0---------|----------------|------|


	*PRE-MAIN RIFF ("'til the shadows and lights were ooone")

G:|---------------9--|
D:|-------9-9-9------|:   Play 
A:|-------------7----|: 4 times
E:|-0-0--------------|


	*MAIN RIFF

G:|-----------------|
D:|-----------------|: Repeat over
A:|-----5-7-----5---|:  and over
E:|-0-7-----0-7---7-|

	You gotta keep playing this during the guitar solo too.

Right before the beggining of the 2nd guitar solo, Eric plays a small variation:

G:|-----------------|
D:|-----------------|
A:|-----5-7-9-9-9-9-|
E:|-0-7-------------|

	
	*HUNTING (after the 2 solos)

G:|-------------|
D:|-------------|: Repeat a 
A:|-------------|: lot of times
E:|-0x-0x-0x-0x-|


	*CLIMAX ("Erotic Jesus...")

G:|------------------?-|
D:|------------------?-| That ? means i dunno the rest of it
A:|-2-0----------5-7-?-| 
E:|-----4-0--0-0-----?-|

But try improvising on this positions:
G:|--------------|
D:|--------------|
A:|--------------|
E:|-(2)-(3)-(5)--|
		Repeat a few times


	*POST-CLIMAX ("all now with wings..")

G:|----------------|--------------|
D:|----------------|--------------| Then back to
A:|-3-3--3-3---3---|-5-5--5-5---5-|   HUNTING
E:|----------3---3-|--------------|


	*BRIDGE (this is the basic idea, easy to catch)

G:|-/11--11-11--11-11-11-12-11-9--/11--11-11-11--11-9-7-9--/11--11--11-11-11---11-12-11--12-14-9-|
D:|----------------------------------------------------------------------------------------------|
A:|----------------------------------------------------------------------------------------------|
E:|----------------------------------------------------------------------------------------------|


	*FINAL RIFF
	This goes in the final guitar solo, and is played very fast and straight

G:|------------------------------|
D:|------------------------------|
A:|------------------------------|
E:|-0-0-2h3-2-0----0-2-3-5-3-2-3-|


	Then it goes like POST-CLIMAX, but a bit faster



	*OUTRO

G:|-9^--|-------|
D:|-----|-------|
A:|-7^--|-------|
E:|-----|-7--0^-|

--------------------------------------------------------------

AMOR Y PAZ
            
Submit corrections

comments powered by Disqus
↑ Back to top | Janes Addiction Bass for Three Days. Lyrics for acoustic guitar and electric guitar. Tablatures and chords are parodies/interpretations of the original songs. You may use it for private study, scholarship, research or language learning purposes only