» » »

Summertime Rolls Bass tabs (ver.2)

Artists:  A B C D E F G H I J K L M N O P Q R S T U V W X Y Z # 

Summertime Rolls Bass tabs (ver.2)

Janes Addiction
Rating:
0/5 (0 votes)

Hard to play? Try these video lessons and learn fast.
                Jane's Addiction--" Summertime Rolls"

This rhythm varies a little bit...I think he plays the first 9-10 config
longer the first time than I have written...also I have not noted the time or
anything, so you'll have to listen to the recording to get that down. I play
this with a kind of finger-picking style, playing the e-string with my thumb
and the g-string with my index or middle fingers in an alternating pattern.
Have fun!



G------10-----10-----10-----10-----11------13------13------13------13------
D--------------------------------------------------------------------------
A--------------------------------------------------------------------------
E---9------9------9------9------9------12------12------12------12----------

G-------13-----13-----13-----13-----13-----11-----10-----10-----10---------
D--------------------------------------------------------------------------
A--------------------------------------------------------------------------
E---12------0------0------0------0------0------9------9------9-------------

                                                                (repeats)

--
            
Hard to play? Try these video lessons and learn fast. | Correct




comments powered by Disqus
↑ Back to top | Tablatures and chords are parodies/interpretations of the original songs. You may use it for private study, scholarship, research or language learning purposes only