>
 >
Summertime Rolls

Summertime Rolls Guitar Tabs

Janes Addiction - Summertime Rolls chords, tabs, tablatures, lyrics

Guitar lessons | Add/correct | Request | Top 50 tabs Artists:  A B C D E F G H I J K L M N O P Q R S T U V W X Y Z 0-9

Summertime Rolls Guitar Tabs – Janes Addiction

CD, Sheet music, Poster

Do you like Summertime Rolls? Share with your friends now
Bass TabsBass Tabs v2Bass Tabs v3Bass Tabs v4Tabs
//Alright, it's the almost complete tab. "Almost", because Dave Navarro is 
//playing specific style. He is adding feedbacks and using textures, so it's
//really hard to catch everything. Obviously I didn't write some variations
//but it's able to play. Lots of feeling is required ;)


+---------------------+
| -4h6- = hammer-on   |
| -4p3- = pull-off    |
| -8/9- = slide       |
| -(9)- = silent note |
| -8~~  = vibrato     |
| -18b- = bend        |
+---------------------+


 1:09   w/ overdrive
-|--------------------------------------------|
-|--------------------------------------------|
-|-4h6--6h8-8/10--10/11\10-9--9/11-11/13-10-6-|
-|--------------------------------------------|
-|--------------------------------------------|
-|--------------------------------------------|

       -----------------------------------------|    
 1:26 |strum at 16th fret & at once slide to 18 v
-|------------------------------------------------------|
-|---------------------------------------------------18-|
-|-(11)p10-11-13--11-10-11/13--11-9-11/13--13/16-/18----|
-|------------------------------------------------------|
-|------------------------------------------------------|
-|------------------------------------------------------|

[through verses - similiar to above (if not the same)]

He trips her as
Her sandals fail
She says stop!
I'm a girl...
Whose fingernails are made
Of mother's pearl... 

Yellow buttercup
Helicopters
Orange buttercat
Chasing after
The crazy bee
Mad about somebody...

 2:17
-|--------------------------------------------|
-|--------------------------------------------|
-|-4h6--6h8-8/10--10/11\10-9--9/11-11/13-10-6-|
-|--------------------------------------------|
-|--------------------------------------------|
-|--------------------------------------------|

 2:34 w/ distortion
-|-----------------------------------------------|
-|-----------------------------------------------|
-|-/11-10-6-8-10--/11-10-6-8-10--11-9\4-3-/11-13-|
-|-----------------------------------------------|
-|-----------------------------------------------|
-|-----------------------------------------------|

Me and my girlfriend
Don't wear no shoes
Her nose is painted pepper
Sunlight...
She loves me
I mean it's serious
As serious can be...

She sings a song and
I listen to what it says:
If you want a friend
Feed any animal...
There was so much space
I cut me a piece
With some fine wine
It brought peace to my mind
In the summertime...
And it rolled 

 4:33
-|--------------------------------------------------6-7-9---------|
-|------18b-----------------------------------5-7-9---------------|
-|-18~~ ----18~~ -9-8-------------------4-6-8--------------6-8~~ -|
-|--------------------------------4-6-8---------------------------|
-|--------------------------4-6-7---------------------------------|
-|--------------------4-6-7---------------------------------------|

 4:50
-|-------------------------|
-|---------18b21~~---------|
-|-16/18~~~--------(9)p8~~-|
-|-------------------------|
-|-------------------------|
-|-------------------------|

Me and my girlfriend
Don't wear no shoes
Her nose is painted pepper
Sunlight...
She loves me
I mean it's serious
As serious can be...


Bass line:

-|---10----10----10----10----11-|---13----13----13----13----13-|
-|------------------------------|------------------------------|
-|------------------------------|------------------------------|
-|-9-----9-----9-----9-----9----|-9-----9-----9-----9-----9----|

-|---13----13----13----13----11-|-10-10----10----10-|
-|------------------------------|-------------------|
-|------------------------------|-------------------|
-|-0-----0-----0-----0-----0----|-9------9-----9----|



//Lollapalollipop





Comments


Popular Janes Addiction tabs & chords
I Would For You Bass Tabs
Summertime Rolls 4 Bass Tabs
Classic Girl 2 Tabs
Had A Dad Intro Tabs
Jane Says Solo Unplugged Tabs
Just Because 5 Tabs
Mountain Song Tabs
Then She Did Tabs
Up The Beach Tabs
City Song Ukulele


Song lyrics



↑ Back to top | Tablatures and chords are parodies/interpretations of the original songs. You may use it for private study, scholarship, research or language learning purposes only
© 2014 AZChords.com Contact us | Privacy policy | DMCA | Add/correct tabs | Request tabs | Top 50 tabs