» » »

Janes Addiction, Suffer Some Bass tabs (ver.1)

Artists:  A B C D E F G H I J K L M N O P Q R S T U V W X Y Z # 

Suffer Some Bass tabs (ver.1)

Janes Addiction Tabs
 Rating:
4/5 (4 votes)
Suffer Some lessons Tabs too difficult? Try these video lessons and learn fast
1
                			     SUFFER SOME – Jane’s Addiction

I saw the tab for this and thought it was way off, so I looked at the guitar one for the
riff and then figured out the rest. Let me know what you think.

Tuning: Drop D
Main riff: do it three times (these are twelves and tens)
G|---------------------------------------------------------------------------|
D|---------------------------------------------------------------------------|
A|---------------------------------------------------------------------------|
D|--0-0-12-0-0-10----0-12-0-0-10----0-0-12-0-0-10----0-12-0-0-10/3-----------|
Other sweet riff: do it twice
G|-----------------------------------------------------------------------------|
D|-----------------------------------------------------------------------------|
A|-----------------------------------------------------------------------------|
D|--0-0-10/0-3-0-3h5-0-0-10h12---0-0-10/0-3-0-3h5-0-0-10h12--------------------|

G|-----------------------------------------------------------------------------|
D|-----------------------------------------------------------------------------|
A|-----------------------------------------------------------------------------|
D|--0-0-10/0-3-0-3h5-0-0-10h12---0-0-10/0-3-0-3h5-0-0-10h12-10h12--------------|
Chorus: do it twice
G|---------------------------------------------------------------------------|
D|-------------------------------------------3h5-555-3h5--------3h5-555—5p3--|
A|------3h555-55-5-55-----3h555-55-55-----3h5----------------3h5-----------5-|
D|--0-0---------------3-3-------------5-5----------------5-5-----------------|
Then do the main riff three times
Then the sweet riff twice
Then the chorus twice

Now the slow part is something like this:
G|---------------------------------------------------------------------------|
D|---------------------------------------------------------------------------|
A|--5---6\4---5-4-3---4\2-----5---6\4---5-4-3---4\2--------5---6-5-4---5-4-3-|
D|--------------------------0------------------------0-0-0-------------------|

G|-----------------|
D|------------8----|
A|--4\2—--2-2------|
D|-----------------|
Then
G|-----------------------------------------------------------------------------|
D|-----------------------------------------------------------------------------|
A|-----------------------------------------------------------------------------|
D|0-0-12-0-0-10---0-12-0-0-10---0-0-12-0-0-10---0-12-0-0-10--0-0-12-0-0-10-----|

G|----------------------------|
D|----------------------------|
A|-10h12----------------------|
D|-------0-4-5-6-7-6-5-4------|
Then go right into the sweet riff six times for the solo, then:
G|---------------------------------------------------------------------------|
D|------------------------------------------------------------3--------------|
A|--555-55-55-555--444-44-44-444--333-33-33-333--222-22-22-3h5—5p3-----------|
D|----------------------------------------------------------------3----------|
Then do this twice
G|---------------------------------------------------------------------------|
D|---------------------------------------------------------------------------|
A|---------------------------------------------3/888-88-88-8886--------------|
D|--000-00-00-000--333-33-33-333-555-55-55-555-------------------------------|
Then:
G|---------------------------------------------------------------------------|
D|---------------------------------------------------------------------------|
A|-------3/5-------3/5------3/5------3/5------3-3/8-88-888------3-3/8-888----|
D|---0-0-------0-0------3-3------3-3------5-5---------------5-5--------------|
Do it again, but instead of the second 5,5,3,3 and slide to 8, do this

G|--------------------------|
D|----------3h5-555-55------|
A|-------3h5----------------|
D|--5--5--------------------|
Repeat that little guy until it fades (actually I think its like three times)

| /  slide up
| \  slide down
| h  hammer-on
| p  pull-off
| ~  vibrato
| +  harmonic
| x  Mute note
            
Submit corrections

comments powered by Disqus
↑ Back to top | Janes Addiction Bass for Suffer Some. Lyrics for acoustic guitar and electric guitar. 1 Tablatures and chords are parodies/interpretations of the original songs. You may use it for private study, scholarship, research or language learning purposes only