» » »

Suffer Some Tabs (ver.1)

Artists:  A B C D E F G H I J K L M N O P Q R S T U V W X Y Z # 

Suffer Some Tabs (ver.1)

Janes Addiction
Rating:
5/5 (5 votes)

Hard to play? Try these video lessons and learn fast.
                
-This is the updated version with the entire solo
-This tab should be very accurate in general. I tried to show Dave's strumming patterns
as closely as possible. There were only a few spots in the solo that were absolutely
impossible to tab. I have included the main riffs, fills, and solos with their
corresponding times in the song. This is my first tab so let me know how I did

Tuning: drop D (if you don't know what this is, forget about learning this song!)


 fuzzy intro part w/ maximum distortion (riff 0)
e|--------------------------------------------------------------------------|
B|-3-3-3--x-x-x-x-x-x-x-x-x-x-----------------------------------------------|
G|-5-5-5--x-x-x-x-x-x-x-x-x-x-----------------------------------------------|
D|-4-4-4--x-x-x-x-x-x-x-x-x-x-----------------------------------------------|
A|-5-5-5--x-x-x-x-x-x-x-x-x-x-----------------------------------------------|
D|--------------------------------------------------------------------------|

after the fuzzy intro part (0:08): (riff 1)
e|--------------------------------------------------------------------------|
B|--------------------------------------------------------------------------|
G|--------------------------------------------------------------------------|
D|--0-0-12h10-0-10----------0-12h10-0-10------------------------------------|
A|--0-0-12h10-0-10----------0-12h10-0-10------------------------------------|
D|--0-0-12h10-0-10----------0-12h10-0-10------------------------------------|

fill #1 (0:31)
e|-1-1-1-1-1-1-1-1----------------------------------------------------------|
B|--------------------------------------------------------------------------|
G|--------------------------------------------------------------------------|
D|--------------------------------------------------------------------------|
A|--------------------------------------------------------------------------|
D|--------------------------------------------------------------------------|

riff 2 (0:33)
e|--------------------------------------------------------------------------|
B|--------------------------------------------------------------------------|
G|--------------------------------------------------------------------------|
D|12\------0-0-12\-0-3-0-3h5-0-0-10h12--------------------------------------|
A|12\------0-0-12\-0-3-0-3h5-0-0-10h12--------------------------------------|
D|12\------0-0-12\-0-3-0-3h5-0-0-10h12--------------------------------------|

riff 3 (0:50)
e|--------------------------------------------------------------------------|
B|-7-7-x-7-x-7-7--x-x--6-6-x-6-x-6-6--x-x------6-----6----------------------|
G|-7-7-x-7-x-7-7--x-x--7-7-x-7-x-7-7--x-x----4-----4------------------------|
D|-7-7-x-7-x-7-7--x-x--6-6-x-6-x-6-6--x-x-----------------------------------|
A|-5-5-x-5-x-5-5--x-x--8-8-x-8-x-8-8--x-x-----------------------------------|
D|-----------------------------------------5-----5--------------------------|

e|--------------------------------------------------------------------------|
B|-7-7-x-7-x-7-7--x-x--6-6-x-6-x-6-6--x-x-12-12-x-12-12-12-x-12-------------|
G|-7-7-x-7-x-7-7--x-x--7-7-x-7-x-7-7--x-x-12-12-x-12-12-12-x-12-------------|
D|-7-7-x-7-x-7-7--x-x--6-6-x-6-x-6-6--x-x-12-12-x-12-12-12-x-12-------------|
A|-5-5-x-5-x-5-5--x-x--8-8-x-8-x-8-8--x-x-10-10-x-10-10-10-x-10-------------|
D|--------------------------------------------------------------------------|

e|--------------------------------------------------------------------------|
B|-12-12-x-12-12-12-x-12----------------------------------------------------|
G|-12-12-x-12-12-12-x-12----------------------------------------------------|
D|-12-12-x-12-12-12-x-12----------------------------------------------------|
A|-10-10-x-10-10-10-x-10----------------------------------------------------|
D|--------------------------------------------------------------------------|

solo 1 (1:06) guitar 1 w/wah {guitar 2 plays riff 1)
e|-13-13-10-12---10---------------8------------8----------------------------|
B|----17------13----12-13-12^(13)---10-12^(13)---10-12^(13)-10--------------|
G|-------------------------------------------------------------10~\---------|
D|--------------------------------------------------------------------------|
A|--------------------------------------------------------------------------|
E|--------------------------------------------------------------------------|

fill 2 (1:19) guitar 1 w/some type of fuzz pedal
e|--------------------------------------------------------------------------|
B|--------------------------------------------------------------------------|
G|-10h12-10-----------------------------------------------------------------|
D|----------10h12p10-10-----------------------------------------------------|
A|----------------------10h12p10-8------------------------------------------|
D|--------------------------------------------------------------------------|

fill 3 (1:29) guitar 1
e|--------------------------------------------------------------------------|
B|-/12--12-12--12-12-12s10-10-----------------------------------------------|
G|-/12--12-12--12-12-12s10-10-----------------------------------------------|
D|-/12--12-12--12-12-12s10-10-----------------------------------------------|
A|--------------------------------------------------------------------------|
D|--------------------------------------------------------------------------|

slow part (2:04)
e|-10-10-10-10-10---9--9--9--9--9---8--8--8--8--8---7--7--7--7--7-----------|
B|-10-10-10-10-10--10-10-10-10-10--10-10-10-10-10--10-10-10-10-10-----------|
G|--------------------------------------------------------------------------|
D|--------------------------------------------------------------------------|
A|--------------------------------------------------------------------------|
D|--------------------------------------------------------------------------|

fill 4 (2:45)
e|-13-13-13-13-13-13-13-13s15-15-15-15--------------------------------------|
B|-13-13-13-13-13-13-13-13s15-15-15-15--------------------------------------|
G|--------------------------------------------------------------------------|
D|--------------------------------------12\---------------------------------|
A|--------------------------------------12\---------------------------------|
D|--------------------------------------12\---------------------------------|

Final Solo (3:05)
e|--------------------------------------------------------------------------|
B|--------------------------------------------------------------------------|
G|--------------------------------------------------------------------------|
D|-/10~--15-15-15-15-14-14-14-14-12-12-12-12-10-10-10-10-9-9-9-9-7-7-7------|
A|--------------------------------------------------------------------------|
D|--------------------------------------------------------------------------|

e|-----------------------------------12----15------13-12-10---10-------------|
B|--------------------------------------13----13-13--------13-13^r-12-10-10--|
G|---------------------------------------------------------------------------|
D|---------------------------------------------------------------------------|
A|-8-10p8-10^(11)-8-10^(11)--------------------------------------------------|
D|--------------------------15\----------------------------------------------|

e|--------7------/10-17p10-10-13p10-10-17p10-10-12p10-10-13p10-10-17p10-10---|
B|-13-12-10^r----------------------------------------------------------------|
G|---------------------------------------------------------------------------|
D|---------------------------------------------------------------------------|
A|---------------------------------------------------------------------------|
D|---------------------------------------------------------------------------|

e|-13p10-10-13p10-10-17p10-10-13p10-10--------------------------------------|
B|-------------------------------------13p10----13p10-10--------------------|
G|-------------------------------------------14----------12+----------------|
D|-----------------------------------------------------------10p7----7------|
A|----------------------------------------------------------------10---10---|
D|--------------------------------------------------------------------------|


e|-----------------------------------------------------12-13-12-------17-22-|
B|----------------------18-17-15+~----18-17-15+~---/15-------------15-------|
G|----------17^(19)r-14------------14---------------------------------------|
D|--------------------------------------------------------------------------|
A|-8+-----------------------------------------------------------------------|
D|----0---------------------------------------------------------------------|

riff 3 variation (3:54)
e|----10---10---10--10------------------------------------------------------|
B|----10---10---10--10--12-12-x-12-12-12-x-12-12-12-x-12-12-12-x-12---------|
G|----10---10---10--10--12-12-x-12-12-12-x-12-12-12-x-12-12-12-x-12---------|
D|----------------------12-12-x-12-12-12-x-12-12-12-x-12-12-12-x-12---------|
A|------------8----8----10-10-x-10-10-10-x-10-10-10-x-10-10-10-x-10---------|
D|-12----12-----------------------------------------------------------------|

| /  slide up
| \  slide down
| h  hammer-on
| p  pull-off
| ~  vibrato
| +  harmonic
| x  Mute note
============================================================================
            
Hard to play? Try these video lessons and learn fast. | Correct




comments powered by Disqus
↑ Back to top | Tablatures and chords are parodies/interpretations of the original songs. You may use it for private study, scholarship, research or language learning purposes only