» » »

Janes Addiction, Standing In The Shower... Thinking Tabs (ver.2)

Artists:  A B C D E F G H I J K L M N O P Q R S T U V W X Y Z # 

Standing In The Shower... Thinking Tabs (ver.2)

Janes Addiction Tabs
Rating:
0/5 (0 votes)
Standing In The Shower... Thinking lessons Tabs too difficult? Try these video lessons and learn fast
                Tuning: (E,A,D,G,B,e)


Intro:

e-|--0------------|-----------------|--0------------|----------------|-
B-|--3------------|-----------------|--3------------|----------------|-
G-|--2------------|-----------------|--2------------|----------------|-
D-|--0------------|-----------------|--0------------|----------------|-
A-|---------------|-----------------|---------------|----------------|-
E-|---------------|-----------------|---------------|----------------|-

Verse:

e-|-------------------------------|-------------------------------|-
B-|-------------x-7--7--x-7--x-x--|-------------x-7--7--x-7--x-x--|-
G-|-------------x-7--7--x-7--x-x--|-------------x-7--7--x-7--x-x--|-
D-|--5/7-x-x-7--x-7--7--x-7--x-x--|--5/7-x-x-7--x-7--7--x-7--x-x--|-
A-|--3/5-x-x-5--------------------|--3/5-x-x-5--------------------|-
E-|-------------------------------|-------------------------------|-

e-|----------------------------|----------------------------|-
B-|--8-x-x-8--x-6--6--x-5-6-5--|--8-x-x-8--x-6--6--x-5--6---|-
G-|--7-x-x-7--x-7--7--x-5-7-5--|--7-x-x-7--x-7--7--x-5--7---|-
D-|--5-x-x-5--x-5--5--x-5-5-5--|--5-x-x-5--x-5--5--x-5--5---|-
A-|----------------------------|----------------------------|-
E-|----------------------------|----------------------------|-

Chorus:

e-|--------------------|-------------------|-
B-|--3--------5--------|--7----------------|-
G-|--3--------5--------|--7----------------|-
D-|--2--------4--------|--6----------------|-
A-|--3--------5--------|--7----------------|-
E-|--------------------|-------------------|-

Verse

Chorus

Guitar Solo...too hard


Interlude:
                                              (x4)
e-|--------6--x-6-6--x-6--|--------6--x-6-6--x-6--|-
B-|--------6--x-6-6--x-6--|--------6--x-6-6--x-6--|-
G-|--------4--x-4-4--x-4--|--------4--x-4-4--x-4--|-
D-|--------5--x-5-5--x-5--|--------5--x-5-5--x-5--|-
A-|-----------------------|-----------------------|-
E-|--/3-------------------|--/3-------------------|-

e-|--6--6--x-6-6--x-6-6----|--6--6---------------|-
B-|--6--6--x-6-6--x-6-6----|--6--6--x-x-3----5---|-
G-|--4--4--x-4-4--x-4-4----|--4--4--x-x-3----5---|-
D-|--5--5--x-5-5--x-5-5----|--5--5--x-x-2----4---|-
A-|------------------------|--------x-x-3----5---|-
E-|------------------------|---------------------|-

Verse:

e-|-------------------------------|-------------------------------|-
B-|-------------x-7--7--x-7--x-x--|-------------x-7--7--x-7--x-x--|-
G-|-------------x-7--7--x-7--x-x--|-------------x-7--7--x-7--x-x--|-
D-|--5/7-x-x-7--x-7--7--x-7--x-x--|--5/7-x-x-7--x-7--7--x-7--x-x--|-
A-|--3/5-x-x-5--------------------|--3/5-x-x-5--------------------|-
E-|-------------------------------|-------------------------------|-

e-|----------------------------|----------------------------|-
B-|--8-x-x-8--x-6--6--x-5-6-5--|--8-x-x-8--x-6--6--x-5--6---|-
G-|--7-x-x-7--x-7--7--x-5-7-5--|--7-x-x-7--x-7--7--x-5--7---|-
D-|--5-x-x-5--x-5--5--x-5-5-5--|--5-x-x-5--x-5--5--x-5--5---|-
A-|----------------------------|----------------------------|-
E-|----------------------------|----------------------------|-

Chorus:

e-|--------------------|-------------------|-
B-|--3--------5--------|--7----------------|-
G-|--3--------5--------|--7----------------|-
D-|--2--------4--------|--6----------------|-
A-|--3--------5--------|--7----------------|-
E-|--------------------|-------------------|-

Outro:

e-|-------------------------------|-------------------------------|-
B-|-------------x-7--7--x-7--x-x--|-------------x-7--7--x-7--x-x--|-
G-|-------------x-7--7--x-7--x-x--|-------------x-7--7--x-7--x-x--|-
D-|--5/7-x-x-7--x-7--7--x-7--x-x--|--5/7-x-x-7--x-7--7--x-7--x-x--|-
A-|--3/5-x-x-5--------------------|--3/5-x-x-5--------------------|-
E-|-------------------------------|-------------------------------|-

e-|----------------------------|----------------------------|-
B-|--8-x-x-8--x-6--6--x-5-6-5--|--8-x-x-8--x-6--6--x-5--6---|-
G-|--7-x-x-7--x-7--7--x-5-7-5--|--7-x-x-7--x-7--7--x-5--7---|-
D-|--5-x-x-5--x-5--5--x-5-5-5--|--5-x-x-5--x-5--5--x-5--5---|-
A-|----------------------------|----------------------------|-
E-|----------------------------|----------------------------|-
            
Submit corrections

comments powered by Disqus
↑ Back to top | Janes Addiction Tabs for Standing In The Shower... Thinking. Lyrics for acoustic guitar and electric guitar. Tablatures and chords are parodies/interpretations of the original songs. You may use it for private study, scholarship, research or language learning purposes only