» » »

Janes Addiction, Standing In The Shower Bass tabs (ver.1)

Artists:  A B C D E F G H I J K L M N O P Q R S T U V W X Y Z # 

Standing In The Shower Bass tabs (ver.1)

Janes Addiction Tabs
Rating:
0/5 (0 votes)
Standing In The Shower lessons Tabs too difficult? Try these video lessons and learn fast
                Janes Addiction - Standing in the Shower

Intro
G|-------------------------------|
D|--0---------0------------------|
A|-------------------------------|
E|-------------------------------|

Verse
G|--------------------------------------|
D|-----7p5----------------7p5-----------|
A|-5-5-----7p5-3-5-3--5-5-----7p5-3-3h5-|
E|--------------------------------------|

G|-------------------------|
D|-----5-------5-5---------|
A|-3---------------3-3-4-4-|
E|--1/3-3---1/3------------|

Outro to Chorus
G|-------------------10-9--|
D|-----5-------5-5---------|
A|-3-----------------------|
E|--1/3-3---1/3------------|

Chorus
G|----------------12-12-|
D|----------7h9-9-12-12-|
A|-3--5--7--------------|
E|----------------------|

Break
G|---------------|
D|--7---7-----10-|
A|-0-0-0--0-0----|
E|---------------|

Bridge
G|------------------|
D|--------5-5-3-3---|
A|----------------5-|
E|-3--3-3-----------|

Bridge Outro
G|---------------------|
D|---------------------|
A|-------------------4-|
E|-3-3-3-3-3--3-3--3---|

Outro
G|--------|
D|---7----|
A|-0------|
E|------4-|
            

comments powered by Disqus
↑ Back to top | Janes Addiction Bass for Standing In The Shower. Lyrics for acoustic guitar and electric guitar. Tablatures and chords are parodies/interpretations of the original songs. You may use it for private study, scholarship, research or language learning purposes only