» » »

Janes Addiction, Price I Pay Tabs (ver.1)

Artists:  A B C D E F G H I J K L M N O P Q R S T U V W X Y Z # 

Price I Pay Tabs (ver.1)

Janes Addiction Tabs
Rating:
4/5 (4 votes)
Hard to play? Try these video lessons and learn fast.
                --------------------------------------------------------------
         Janes Addiction - Price I Pay
 Intro.  
 Guitar :
e|-----------------------------------------------------------|
B|-----------------------------------------------------Sl----|
G|-----6-------8-------9-p-8-----------6-------4-----/(4)--4-|
D|-----7------(7)------------------7--(7)--------------------|
A|-0-------0-------0-----------0-----------0-------0---------|
E|-----------------------------------------------------------|

e|-------------------------------------------0---------------|
B|------------------------------------------0----------------|
G|-----6-------8-------9-p-8-----------5---5-----------------| 	
D|-----7------(7)------------------5-----(5)-----------------|
A|-0-------0-------0-----------3------------------(3)-(2)-(0)|:Bass
E|-----------------------------------------------------------|

e|-----------------------------------------------------------|
B|-----------------------------------------------------sl----|
G|-----6-------8-------9-p-8-----------6-------4-----/(4)--4-|
D|-----7------(7)--------------7------(7)--------------------|
A|-0-------0-------0---------------0-------0-------0---------|
E|-----------------------------------------------------------|

e|-----------------------------------------------------------|  	
B|--------------------------------------sl-------------------|		
G|-----6-------8-------9-------11-11---/(12)-----------------|		 
D|-----7-----------------------------------------------------|		
A|-0-------0-------0-------0----------------------(3)-(2)-(0)|   ETC. . .		
E|-----------------------------------------------------------|     

		"So forgive me now..."
e|---------0-------------------------(0)--------|--0-------------------------
B|--------(x)-------------------------0---------|-(x)------------------------
G|---------7------------------------5-5-5-------|--7-------------------------
D|---------7----------------------5-------5-----|--7-------------------------
A|-3---4---5--(5)-(5)-(5)-------3-----------3---|--5------------------------0
E|----------------------------------------------|-------3---3---3---3-/(5)--- ETC. . .

  Bass :
G|------------------------|----|-------		
D|------------------------|----|----------	
A|-------sl---------------|----|-------------	
E|-0---0h/3---3---3--p-0--|-X4-|----------------   ETC . . .


  Guitar :
e|-------------------------------------------------------------------------|
B|-------------------------------------------------------------------------|
G|-------------------------------------------------------------------------|
D|---------6-----------5-----------4---------------------------------------|
A|---5-7-----7---5-7-----7---5-7-----7---5-7---7-----4-5---2-5-------------|
E|-0-----0-----0-----0-----0-----0-----0-----0---0-5-----3-----3-2---------| ETC. . . 

 Pre-chorus. 
e|-------------------------------------------------------------------------|
B|------------------------------------(sl)----------xx-------(sl)----------|
G|-22-----2------55-----5-------99---7-/9---7--9---xx--99---7-/9---7--9----|
D|-22-----2------55-----5-------99---7-/9---7--9---xx--99---7-/9---7--9----|
A|-00-----0------33-----3-------77---5-/7---5--7-------77---5-/7---5--7----|
E|-------------------------------------------------------------------------|

 Bridge.
e|-------5----------|--------8-----------|-----------0--------|-----------0--
B|-----------7------|------------12------|-------6------------|-------6------
G|-----7-------7----|-----10--------10---|-----5---------5----|-----5-------5
D|------------------|--------------------|-3------------(3-5)-|--------------
A|-5----------------|-8------------------|---------------(H)--|-3------------
E|------------------|--------------------|--------------------|--------------

e|-------5----------|--------8-----------|-----------0--------|-----------0-
B|-----------7------|------------12------|-------6------------|-------6------
G|-----7-------7----|-----10--------10---|-----5---------5----|-----5-------5
D|---------------(sl|)-------------------|-3------------------|--------------
A|(5)---------(5--//|-8)-----------------|--------------(3-5)-|(3)-----------
E|------------------|--------------------|--------------------|--------------

        "I'm flyin'now..."
e|------------------|--------------------|--------------------|--------------
B|-------12---------|--------12----------|-------11-----------|--------11----
G|-----------10-----|------------10------|------------9-------|-----------9-
D|-----12------12---|-----12--------12---|-----12--------12---|------12----12
A|-10---------------|-10-----------------|-10-----------------|-10-----------
E|------------------|--------------------|--------------------|--------------

e|------------------|  ||  
B|-------14---------|  ||
G|-----------12-----|  ||
D|-----14------14---|x4||
A|-10---------------|  ||
E|------------------|  ||  ETC. . .

 	Bass : Drum Fill :   ETC. . .

 	Ending.

	E5	G5	E5	G5 A5  	ETC. . .

	END.

NB: Copied from wordpad so spacing in bridge was shortened at ends to accomadate.
            

comments powered by Disqus
↑ Back to top | Janes Addiction Tabs for Price I Pay. Lyrics for acoustic guitar and electric guitar. Tablatures and chords are parodies/interpretations of the original songs. You may use it for private study, scholarship, research or language learning purposes only