>
 >
Ocean Size 2

Ocean Size 2 Guitar Tabs

Janes Addiction - Ocean Size 2 chords, tabs, tablatures, lyrics

Guitar lessons | Add/correct | Request | Top 50 tabs Artists:  A B C D E F G H I J K L M N O P Q R S T U V W X Y Z 0-9

Ocean Size 2 Guitar Tabs – Janes Addiction

CD, Sheet music, Poster

Do you like Ocean Size 2? Share with your friends now
Bass TabsBass Tabs v2ChordsTabsTabs v2Tabs v3Ukulele
Intro

E |---------------------0-------------------|
B |------------0----------------------------|
G |------4--------4--------4---------4------|
D |------------------5--------5-------------|
A |---5-----5---------------------5-----5---|
E |-----------------------------------------|

E |---------------------0-------------------|
B |------------0----------------------------|
G |------3--------3--------3---------3------|
D |---------------------------4-------------|
A |---4-----4--------4------------4-----4---|
E |-----------------------------------------|

E |---------------------0-------------------|
B |------------0----------------------------|
G |------2--------2--------2---------2------|
D |------------------3--------3-------------|
A |---3-----3---------------------3-----3---|
E |-----------------------------------------|

E |----------------------0---0---0----------|
B |------------0---------0---0---0----------|
G |------1--------1------1---2---3----------|
D |------------------2---2---3---4----------|
A |---2-----2------------2---3---4----------|
E |-----------------------------------------|

E |---------------------0-------------------|
B |------------0----------------------------|
G |------4--------4--------4---------4------|
D |------------------5--------5-------------|
A |---5-----5---------------------5-----5---|
E |-----------------------------------------|

E |---------------------0-------------------|
B |------------0----------------------------|
G |------3--------3--------3---------3------|
D |---------------------------4-------------|
A |---4-----4--------4------------4-----4---|
E |-----------------------------------------|

E |---------------------0-------------------|
B |------------0----------------------------|
G |------2--------2--------2---------2------|
D |------------------3--------3-------------|
A |---3-----3---------------------3-----3---|
E |-----------------------------------------|

E |-----0----|
B |-----0----|
G |-----2----|
D |-----3----|
A |-----3----| 
E |----------|

 
Verse (just repeat it, it has some variations but i don't know 'em)
E |----------------------------------------|
B |----------------------------------------|
G |----------------------------------------|
D |----2-----2--2--------------------------|
A |----2-----2--2---2---2---2----2---2-----|
E |----0-----0--0---0---3---3----3---3-----|

E |----------------------------------------|
B |----------------------------------------|
G |----------------------------------------|
D |---------------------------0----2----0--|
A |--/4--4--4----2---2---2----0----2----0--|
E |--/5--5--5----3---3---3-----------------|

Pre Chorus
E |----0---------3---------5---------|
B |----0---------3---------5---------|
G |----1---------0---------6---------|
D |----2---------0---------7---------|
A |----2---------x---------7---------|
E |----0---------3---------5---------|

E |----2---2---0---------------2---0---0---|
B |----0---0---0---0---2---0---0---0---0---|
G |----1-------1---1---1---1---1---1---1---|
D |----2-------2-------2---2---2---2---2---|
A |----2-------2-------2---2---2---2---2---|
E |----0-------0-------0---0---0---0---0---|

E |------------2---0-------0----0---0---0--|
B |----2---0---0---0-------0----0---0---0--|
G |----1---1---1---1-------0----1---1---1--|
D |----2---2---2---2-------2----2---2---2--|
A |----2---2---2---2-------2----2---2---2--|
E |----0---0---0---0-------0----0---0---0--|

E |----2---2---0---------------2---0---0---|
B |----0---0---0---0---2---0---0---0---0---|
G |----1-------1---1---1---1---1---1---1---|
D |----2-------2-------2---2---2---2---2---|
A |----2-------2-------2---2---2---2---2---|
E |----0-------0-------0---0---0---0---0---|

E |--------0---2---0---0---0---0---3---3---|
B |----2---0---0---0---0---0---0---3---3---|
G |----1---1---1---1---1---1---1---0---0---|
D |----2---2---2---2---2---2---2---0---0---|
A |----2---2---2---2---2---2---2---x---x---|
E |----0---0---0---0---0---0---0---3---3---|

E |----3---3------3-----3---3--3---3-------|
B |----3---3------3-----3---3--3---3-------|
G |----0---0------0-----0---0--0---0-------|
D |----0---0------0-----0---0--0---0-------|
A |----2---x------x-----x---x--x---x-------|
E |----3---3------3-----3---3--3---3-------|

E |-------------2---------3--2-----0-------|
B |----3-------------3----------3----------|
G |----2----2------------------------------|
D |----0-----------------------------------|
A |----------------------------------------|
E |----------------------------------------|

E |---0------0---0--0----0---0---0---------|
B |---2------2---2--2----2---2---2---------|
G |---2------2---2--2----2---2---2---------|
D |---2------2---2--2----2---2---2---------|
A |---0------0---0--0----0---0---0---------|
E |----------------------------------------|

Chorus (again)
E |----------------------------------------|
B |----------------------------------------|
G |----------------------------------------|
D |----2-----2--2--------------------------|
A |----2-----2--2---2---2---2----2---2-----|
E |----0-----0--0---0---3---3----3---3-----|

E |----------------------------------------|
B |----------------------------------------|
G |----------------------------------------|
D |---------------------------0----2----0--|
A |--/4--4--4----2---2---2----0----2----0--|
E |--/5--5--5----3---3---3-----------------|
 
I don't know the solo you figure it out yourself





Comments


Popular Janes Addiction tabs & chords
Pigs In Zen 1 Bass Tabs
Three Days 2 Bass Tabs
True Nature 3 Bass Tabs
Up The Beach 3 Bass Tabs
Been Caught Stealing 1 Tabs
Classic Girl 1 Tabs
Had A Dad Tabs
Had A Dad 2 Tabs
No One's Leaving Tabs
Of Course Ukulele


Song lyrics



↑ Back to top | Tablatures and chords are parodies/interpretations of the original songs. You may use it for private study, scholarship, research or language learning purposes only
© 2014 AZChords.com Contact us | Privacy policy | DMCA | Add/correct tabs | Request tabs | Top 50 tabs