>
 >
Obvious 1

Obvious 1 Bass Tabs

Janes Addiction - Obvious 1 chords, tabs, tablatures, lyrics

Guitar lessons | Add/correct | Request | Top 50 tabs Artists:  A B C D E F G H I J K L M N O P Q R S T U V W X Y Z 0-9

Obvious 1 Bass Tabs – Janes Addiction

CD, Sheet music, Poster

Do you like Obvious 1? Share with your friends now
Bass TabsBass Tabs v2Tabs
Tuning: E-A-D-G
Notes:
p - Pull-Off
h - Hammer-On
/ - Slide up
\ - Slide Down
~ - Let Ring

Intro:  Fade in
G|-------------------------------------|
D|-------------------------------------|
A|--3-3--3-3-----------------3-3--3-3--|
E|-------------------------------------|



Verse: :09 - 1:21
G|-----------5-3---------8p5--|
D|---------------5-5-5-5------|
A|--3-3--3-3------------------|
E|----------------------------|



Chorus: 1:21 - 1:37
G|--------------------------------------------------------|
D|---------2------------2------------2------------2-------|
A|--0/8\----0-0--0/8\----0-0--0/8\----0-0--0/8\----0-0--0-|
E|--------------------------------------------------------|

G|----------------------------|
D|-----------5-3---------8p5--|
A|---------------5-5-5-5------|
E|--3-3--3-3------------------| (x2)



Verse: 1:37 - 1:47
G|-----------5-3---------8p5--|
D|---------------5-5-5-5------|
A|--3-3--3-3------------------|
E|----------------------------|

 break at 1:47
G|----------------------------------------------|
D|-------8-----8---8-----8-8-----8-----8---8-8--|
A|----------------------------------------------|
E|--6-6-6-6-6-6-6-6-6-6-6-6-6-6-6-6-6-6-6-6-6-6-|

      1:52 - 2:23
G|-----------5-3---------8p5--|
D|---------------5-5-5-5------|
A|--3-3--3-3------------------|
E|----------------------------|



Chorus: 2:23 - 2:39
G|--------------------------------------------------------|
D|---------2------------2------------2-2----------2-------|
A|--0/8\----0-0--0/8\----0-0--0/8\----0-0--0/8\----0-0--0-|
E|--------------------------------------------------------|

G|----------------------------|
D|-----------5-3---------8p5--|
A|---------------5-5-5-5------|
E|--3-3--3-3------------------| (x2)



Verse:  2:39 - 2:49
G|-----------5-3---------8p5--|
D|---------------5-5-5-5------|
A|--3-3--3-3------------------|
E|----------------------------|


Verse Interlude: 2:49   There more F's played here than shown
G|-----------------------------------------------------------------|
D|-----------------------------------------------------------------|
A|--0---7-0~--0---7-0~-8-8-8-8-8-8-8-8-8-8-8-8-8---8--8--8--8---8--|
E|-----------------------------------------------------------------| (x2)


Verse:  3:10 - 3:20
G|-----------5-3---------8p5--|
D|---------------5-5-5-5------|
A|--3-3--3-3------------------|
E|----------------------------|

 break at 3:20
G|----------------------------------------------|
D|-------8-----8---8-----8-8-----8-----8---8-8--|
A|----------------------------------------------|
E|--6-6-6-6-6-6-6-6-6-6-6-6-6-6-6-6-6-6-6-6-6-6-|

        3:25 - 3:56
G|-----------5-3---------8p5--|
D|---------------5-5-5-5------|
A|--3-3--3-3------------------|
E|----------------------------|



Chorus: 3:56 - 4:12
G|---------------------2-------------------------2-2-2-2-2-|
D|---------2------------2------------2-2-------------------|
A|--0/8\----0-0--0/8\----0-0--0/8\----0-0--0/8\------------|
E|---------------------------------------------------------|

G|----------------------------|
D|-----------5-3---------8p5--|
A|---------------5-5-5-5------|
E|--3-3--3-3------------------| (x2)



Verse:  4:12 - 4:23
G|-----------5-3---------8p5--|
D|---------------5-5-5-5------|
A|--3-3--3-3------------------|
E|----------------------------|


Verse Interlude/Guitar Solo: 4:23 - 5:24 
               There more F's played here than shown
G|-----------------------------------------------------------------|
D|-----------------------------------------------------------------|
A|--0---7-0~--0---7-0~-8-8-8-8-8-8-8-8-8-8-8-8-8---8--8--8--8---8--|
E|-----------------------------------------------------------------| (x6)



Outro: 5:24 - 5:48
G|----------------5-3---------8p5--|
D|-3h5p3--------------5-5-5-5------|
A|-------3-3--3-3------------------|
E|---------------------------------|

G|-----------5-3---------8p5--|
D|---------------5-5-5-5------|  Progressively slow down
A|--3-3--3-3------------------|
E|----------------------------|
                          Get quieter here 
G|--------------------5----3------------8------|
D|---------------------------5--5--5--5--------|
A|--3----3-----3----3-----------------------3~-|
E|---------------------------------------------|





Comments


Popular Janes Addiction tabs & chords
Just Because 1 Bass Tabs
No One's Leaving Bass Tabs
Ocean Size 1 Bass Tabs
Of Course Chords
Had A Dad 2 Tabs
Had A Dad Intro Tabs
Jane Says Unplugged (Solo) Tabs
Price I Pay Tabs
Stop 3 Tabs
Thank You Boys 1 Tabs


Song lyrics



↑ Back to top | Tablatures and chords are parodies/interpretations of the original songs. You may use it for private study, scholarship, research or language learning purposes only
© 2014 AZChords.com Contact us | Privacy policy | DMCA | Add/correct tabs | Request tabs | Top 50 tabs