>
 >
Mountain Song 3

Mountain Song 3 Guitar Tabs

Janes Addiction - Mountain Song 3 chords, tabs, tablatures, lyrics

Guitar lessons | Add/correct | Request | Top 50 tabs Artists:  A B C D E F G H I J K L M N O P Q R S T U V W X Y Z 0-9

Mountain Song 3 Guitar Tabs – Janes Addiction

CD, Sheet music, Poster

Do you like Mountain Song 3? Share with your friends now
Bass TabsBass Tabs v2Bass Tabs v3TabsTabs v2Tabs v3Tabs v4
Tuning: Drop D
Tab Legend:
P: Pull Off
H: Hammer On
S: Slide To
B: Whole Step Bend
b: Half Step Bend
~: Vibrato
M: Palm Muted
\: Slide Down
X: Muted Note
x: Pick Scrape
G: Ghost Note
+: Every One Of These Means To Sustain a Note For One 32 Note
-: One 32nd Note Rest
*: Symbolizes The Beat
|: One Measure

Guitar 1: Electric with mild distortion
Guitar 2: Acoustic, possibly 12 stringed
Bass: Uhhh… a normal bass
Guitar 3: Electric with heavy distortion
All drop D EXCEPT FOR THE BASS

Intro: 
4/4
Guitar 1:

e:-----------------------------------|
B:-----------------------------------|
G:-----------------------------------|
D:-----------------------------------|
A:-----------------------------------|
D:-----------------------------------|
 *        *        *        *       *
Guitar 2:

e:-----------------------------------|
B:-----------------------------------|
G:-----------------------------------|
D:-----------------------------------|
A:-----------------------------------|
D:-----------------------------------|
 *        *        *        *       *
Bass:

G:-----------------------------------|
D:0H2-2-2-2-5-2-2-2-0H2-2-2-2--------|
A:-----------------------------------|
E:----------------------------0-0-0-0|
 *        *        *        *       *
Guitar 3:

e:-----------------------------------|
B:-----------------------------------|
G:-----------------------------------|
D:-----------------------------------|
A:-----------------------------------|
D:-----------------------------------|
 *        *        *        *       *
Guitar 1:

e:-----------------------------------|
B:-----------------------------------|
G:-----------------------------------|
D:-----------------------------------|
A:-----------------------------------|
D:-----------------------------------|
 *        *        *        *       *
Guitar 2:

e:-----------------------------------|
B:-----------------------------------|
G:-----------------------------------|
D:-----------------------------------|
A:-----------------------------------|
D:-----------------------------------|
 *        *        *        *       *
Bass:

G:-----------------------------------|
D:0H2-2-2-2-5-2-2-2-0H2-2-2-2--------|
A:-----------------------------------|
E:----------------------------0-0-0-0|
 *        *        *        *       *
Guitar 3:

e:-----------------------------------|
B:-----------------------------------|
G:-----------------------------------|
D:-----------------------------------|
A:-----------------------------------|
D:-----------------------------------|
 *        *        *        *       *
Guitar 1:

e:-----------------------------------|
B:-----------------------------------|
G:7++++++++++++++++++++++++++++++++++|
D:7++++++++++++++++++++++++++++++++++|
A:5++++++++++++++++++++++++++++++++++|
D:5++++++++++++++++++++++++++++++++++|
 *        *        *        *       *
Guitar 2:

e:5----------------------------------|
B:5----------------------------------|
G:7----------------------------------|
D:7----------------------------------|
A:5----------------------------------|
D:5----------------------------------|
 *        *        *        *       *
Bass:

G:-----------------------------------|
D:0H2-2-2-2-5-2-2-2-0H2-2-2-2--------|
A:-----------------------------------|
E:----------------------------0-0-0-0|
 *        *        *        *       *
Guitar 3:

e:-----------------------------------|
B:-----------------------------------|
G:7++++++++++++++++++++++++++++++++++|
D:7++++++++++++++++++++++++++++++++++|
A:5++++++++++++++++++++++++++++++++++|
D:5++++++++++++++++++++++++++++++++++|
 *        *        *        *       *
Guitar 1:

e:------------------------------------|
B:------------------------------------|
G:12++++++++++++++++++++++++++++++++++|
D:10++++++++++++++++++++++++++++++++++|
A:10++++++++++++++++++++++++++++++++++|
D:------------------------------------|
 *        *        *        *       *
Guitar 2:

e:10----------------------------------|
B:12----------------------------------|
G:12----------------------------------|
D:10----------------------------------|
A:10----------------------------------|
D:------------------------------------|
 *        *        *        *       *
Bass:

G:-----------------------------------|
D:0H2-2-2-2-5-2-2-2-0H2-2-2-2--------|
A:-----------------------------------|
E:----------------------------0-0-0-0|
 *        *        *        *       *
Guitar 3:

e:------------------------------------|
B:------------------------------------|
G:12++++++++++++++++++++++++++++++++++|
D:10++++++++++++++++++++++++++++++++++|
A:10++++++++++++++++++++++++++++++++++|
D:------------------------------------|
 *        *        *        *       *
Guitar 1:

e:-----------------------------------|
B:-----------------------------------|
G:5++++++++++++++++++++++++++++++++++|
D:5++++++++++++++++++++++++++++++++++|
A:3++++++++++++++++++++++++++++++++++|
D:3++++++++++++++++++++++++++++++++++|
 *        *        *        *       *
Guitar 2:

e:3----------------------------------|
B:3----------------------------------|
G:5----------------------------------|
D:5----------------------------------|
A:3----------------------------------|
D:3----------------------------------|
 *        *        *        *       *
Bass:

G:-----------------------------------|
D:0H2-2-2-2-5-2-2-2-0H2-2-2-2--------|
A:-----------------------------------|
E:----------------------------0-0-0-0|
 *        *        *        *       *
Guitar 3:

e:-----------------------------------|
B:-----------------------------------|
G:5++++++++++++++++++++++++++++++++++|
D:5++++++++++++++++++++++++++++++++++|
A:3++++++++++++++++++++++++++++++++++|
D:3++++++++++++++++++++++++++++++++++|
 *        *        *        *       *
Guitar 1:

e:------------------------------------|
B:------------------------------------|
G:12++++++++++++++++++++++++++++++++++|
D:10++++++++++++++++++++++++++++++++++|
A:10++++++++++++++++++++++++++++++++++|
D:------------------------------------|
 *        *        *        *        *
Guitar 2:

e:10----------------------------------|
B:12----------------------------------|
G:12----------------------------------|
D:10----------------------------------|
A:10----------------------------------|
D:------------------------------------|
 *        *        *        *       *
Bass:

G:-----------------------------------|
D:0H2-2-2-2-5-2-2-2-0H2-2-2-2--------|
A:-----------------------------------|
E:----------------------------0-0-0-0|
 *        *        *        *       *
Guitar 3:

e:------------------------------------|
B:------------------------------------|
G:12++++++++++++++++++++++++++++++++++|
D:10++++++++++++++++++++++++++++++++++|
A:10++++++++++++++++++++++++++++++++++|
D:------------------------------------|
 *        *        *        *        *
Guitar 1:

e:-----------------------------------|
B:-----------------------------------|
G:2++++++++++++++++++++++++++++++++++|
D:2++++++++++++++++++++++++++++++++++|
A:0++++++++++++++++++++++++++++++++++|
D:0++++++++++++++++++++++++++++++++++|
 *        *        *        *       *
Guitar 2:

e:0----------------------------------|
B:0----------------------------------|
G:2----------------------------------|
D:2----------------------------------|
A:0----------------------------------|
D:0----------------------------------|
 *        *        *        *       *
Bass:

G:-----------------------------------|
D:0H2-2-2-2-5-2-2-2-0H2-2-2-2--------|
A:-----------------------------------|
E:----------------------------0-0-0-0|
 *        *        *        *       *
Guitar 3:

e:-----------------------------------|
B:-----------------------------------|
G:2++++++++++++++++++++++++++++++++++|
D:2++++++++++++++++++++++++++++++++++|
A:0++++++++++++++++++++++++++++++++++|
D:0++++++++++++++++++++++++++++++++++|
 *        *        *        *       *
Verse
The Names of the Chords are above the Tab
4/4
Guitar 1:
 D5 E5    G5 E5    D5 E5      E5
e:-----------------------------------|
B:-----------------------------------|
G:-----------------------------------|
D:0H2+++---5S2+++---0H2+++----2-2-2-2|
A:0H2+++---5S2+++---0H2+++----2-2-2-2|
D:0H2+++---5S2+++---0H2+++----2-2-2-2|
 *        *        *        * M M M M*
Guitar 2:
  E5
e:-----------------------------------|
B:-----------------------------------|
G:-----------------------------------|
D:2-2-2-2-2-2-2-2-2-2-2-2-2-2-2-2-2-2|
A:2-2-2-2-2-2-2-2-2-2-2-2-2-2-2-2-2-2|
D:2-2-2-2-2-2-2-2-2-2-2-2-2-2-2-2-2-2|
 *        *        *        *       *
Bass:

G:-----------------------------------|
D:0H2-2-2-2-5-2-2-2-0H2-2-2-2--------|
A:-----------------------------------|
E:----------------------------0-0-0-0|
 *        *        *        *       *
Guitar 3:
 D5 E5    G5 E5    D5 E5      E5
e:-----------------------------------|
B:-----------------------------------|
G:-----------------------------------|
D:0H2+++---5S2+++---0H2+++----2-2-2-2|
A:0H2+++---5S2+++---0H2+++----2-2-2-2|
D:0H2+++---5S2+++---0H2+++----2-2-2-2|
 *        *        *        * M M M M*
Pre-Chorus
4/4
Guitar 1:
 D5
e:-----------------------------------|
B:-----------------------------------|
G:-----------------------------------|
D:0++++++++++++++++++++++++++++++++++|
A:0++++++++++++++++++++++++++++++++++|
D:0++++++++++++++++++++++++++++++++++|
 *        *        *        *       *
Guitar 2:

  E5
e:-----------------------------------|
B:-----------------------------------|
G:-----------------------------------|
D:2-2-2-2-2-2-2-2-2-2-2-2-2-2-2-2-2-2|
A:2-2-2-2-2-2-2-2-2-2-2-2-2-2-2-2-2-2|
D:2-2-2-2-2-2-2-2-2-2-2-2-2-2-2-2-2-2|
 *        *        *        *       *
Bass:

G:-----------------------------------|
D:0++++++++++++++++++++++++++++++++++|
A:-----------------------------------|
E:-----------------------------------|
 *        *        *        *       *
Guitar 3:
 D5
e:0++++++++++++++++++++++++++++++++++|
B:2++++++++++++++++++++++++++++++++++|
G:2++++++++++++++++++++++++++++++++++|
D:0++++++++++++++++++++++++++++++++++|
A:0++++++++++++++++++++++++++++++++++|
D:0++++++++++++++++++++++++++++++++++|
 *        *        *        *       *
Chorus
4/4
Guitar 1:

e:3---3----2+++++---2+++++++--2/-----|
B:3---3----3+++++--------------------|
G:-----------------------------------|
D:-----------------------------------|
A:-----------------------------------|
D:-----------------------------------|
 *        *        *        *       *
Guitar 2:
 G         D
e:3---3----2--------2---------2-2----|
B:3---3----3--------3---------3-3----|
G:0---0----2--------2---------2-2----|
D:0---0----0--------0---------0-0----|
A:2---2------------------------------|
D:3---3------------------------------|
 *        *        *        *       *
Bass:

G:-----------------------------------|
D:1---1----0--------0---------0-0----|
A:-----------------------------------|
E:-----------------------------------|
 *        *        *        *       *
Guitar 3:

e:3---3----2+++++---2+++++++--2/-----|
B:3---3----3+++++--------------------|
G:-----------------------------------|
D:-----------------------------------|
A:-----------------------------------|
D:-----------------------------------|
 *        *        *        *       *
Guitar 1:

e:-----------------------------------|
B:-----------------------------------|
G:5-------4/-------------------------|
D:5-------5/-------4+++++++++++++++++|
A:-----------------5+++++++++++++++++|
D:-----------------------------------|
 *        *        *        *       *
Guitar 2:
 Csus2  Cmaj7sus2 Gmaj7
e:3-------3--------3-----------------|
B:3-------3--------3-----------------|
G:5-------4--------4-----------------|
D:5-------5--------4-----------------|
A:3-------3--------5-----------------|
D:3-------3--------3-----------------|
 *        *        *        *       *
Bass:

G:-----------------------------------|
D:-----------------------------------|
A:3+++++++2++++++++------------------|
E:-----------------3+++++++++++++++++|
 *        *        *        *       *
Guitar 3:

e:-----------------------------------|
B:-----------------------------------|
G:5-------4/-------------------------|
D:5-------5/-------4+++++++++++++++++|
A:-----------------5+++++++++++++++++|
D:-----------------------------------|
 *        *        *        *       *
Guitar 1:

e:3---3----2+++++++------------------|
B:3---3----3+++++++------------------|
G:-----------------------------------|
D:------------------00000000022222222|
A:------------------00000000022222222|
D:------------------00000000022222222|
 *        *        *        *       *
Guitar 2:
 G         D
e:3---3----2-------------------------|
B:3---3----3-------------------------|
G:0---0----2-------------------------|
D:0---0----0--------00000000022222222|
A:2---2-------------00000000022222222|
D:3---3-------------00000000022222222|
 *        *        *        *       *
Bass:

G:-----------------------------------|
D:1---1----0--------00000000222222222|
A:-----------------------------------|
E:-----------------------------------|
 *        *        *        *       *
Guitar 3:

e:3---3----2+++++--------------------|
B:3---3----3+++++--------------------|
G:-----------------------------------|
D:------------------00000000022222222|
A:------------------00000000022222222|
D:------------------00000000022222222|
 *        *        *        *       *
Solo
4/4
Guitar 1:
 D5 E5    G5 E5    D5 E5      E5
e:-----------------------------------|
B:-----------------------------------|
G:-----------------------------------|
D:0H2+++---5S2+++---0H2+++----2-2-2-2|
A:0H2+++---5S2+++---0H2+++----2-2-2-2|
D:0H2+++---5S2+++---0H2+++----2-2-2-2|
 *        *        *        * M M M M*
Guitar 2:
  E5
e:-----------------------------------|
B:-----------------------------------|
G:-----------------------------------|
D:2-2-2-2-2-2-2-2-2-2-2-2-2-2-2-2-2-2|
A:2-2-2-2-2-2-2-2-2-2-2-2-2-2-2-2-2-2|
D:2-2-2-2-2-2-2-2-2-2-2-2-2-2-2-2-2-2|
 *        *        *        *       *
Bass:

G:-----------------------------------|
D:0H2-2-2-2-5-2-2-2-0H2-2-2-2--------|
A:-----------------------------------|
E:----------------------------0-0-0-0|
 *        *        *        *       *
Guitar 3:

e:12-12-14-12-15-12++12-14-12-12-17++17+17+17+++++|
B:------------------------------------------------|
G:------------------------------------------------|
D:------------------------------------------------|
A:------------------------------------------------|
D:------------------------------------------------|
 *           *          *            *            *
Guitar 1:
 D5 E5    G5 E5    D5 E5      E5
e:-----------------------------------|
B:-----------------------------------|
G:-----------------------------------|
D:0H2+++---5S2+++---0H2+++----2-2-2-2|
A:0H2+++---5S2+++---0H2+++----2-2-2-2|
D:0H2+++---5S2+++---0H2+++----2-2-2-2|
 *        *        *        * M M M M*
Guitar 2:
  E5
e:-----------------------------------|
B:-----------------------------------|
G:-----------------------------------|
D:2-2-2-2-2-2-2-2-2-2-2-2-2-2-2-2-2-2|
A:2-2-2-2-2-2-2-2-2-2-2-2-2-2-2-2-2-2|
D:2-2-2-2-2-2-2-2-2-2-2-2-2-2-2-2-2-2|
 *        *        *        *       *
Bass:

G:-----------------------------------|
D:0H2-2-2-2-5-2-2-2-0H2-2-2-2--------|
A:-----------------------------------|
E:----------------------------0-0-0-0|
 *        *        *        *       *
Guitar 3:

e:21-21b-----------------------------------------|
B:--------15-15-12-15-17+++-15-15-12-15-17+++++++|
G:-----------------------------------------------|
D:-----------------------------------------------|
A:-----------------------------------------------|
D:-----------------------------------------------|
 *          *             *             *        *
Guitar 1:
 D5 E5    G5 E5    D5 E5      E5
e:-----------------------------------|
B:-----------------------------------|
G:-----------------------------------|
D:0H2+++---5S2+++---0H2+++----2-2-2-2|
A:0H2+++---5S2+++---0H2+++----2-2-2-2|
D:0H2+++---5S2+++---0H2+++----2-2-2-2|
 *        *        *        * M M M M*
Guitar 2:
  E5
e:-----------------------------------|
B:-----------------------------------|
G:-----------------------------------|
D:2-2-2-2-2-2-2-2-2-2-2-2-2-2-2-2-2-2|
A:2-2-2-2-2-2-2-2-2-2-2-2-2-2-2-2-2-2|
D:2-2-2-2-2-2-2-2-2-2-2-2-2-2-2-2-2-2|
 *        *        *        *       *
Bass:

G:-----------------------------------|
D:0H2-2-2-2-5-2-2-2-0H2-2-2-2--------|
A:-----------------------------------|
E:----------------------------0-0-0-0|
 *        *        *        *       *
Guitar 3:
The sounds that sound sorta like something roaring are pickscrapes mixed with heavy distortion
e:-----------------------------------------|
B:-----------------------------------------|
G:12~12~12~12~12~12------------------------|
D:-------------------xxxxxxxxxxx----xxx-xxx|
A:-------------------xxxxxxxxxxx----xxx-xxx|
D:-------------------xxxxxxxxxxx----xxx xxx|
 *             *         *        *        *
Guitar 1:
 D5 E5    G5 E5    D5 E5      E5
e:-----------------------------------|
B:-----------------------------------|
G:-----------------------------------|
D:0H2+++---5S2+++---0H2+++----2-2-2-0|
A:0H2+++---5S2+++---0H2+++----2-2-2-0|
D:0H2+++---5S2+++---0H2+++----2-2-2-0|
 *        *        *        * M M M  *
Guitar 2:
  E5
e:----------------------------------0|
B:----------------------------------2|
G:----------------------------------2|
D:2-2-2-2-2-2-2-2-2-2-2-2-2-2-2-2-2-0|
A:2-2-2-2-2-2-2-2-2-2-2-2-2-2-2-2-2-0|
D:2-2-2-2-2-2-2-2-2-2-2-2-2-2-2-2-2-0|
 *        *        *        *       *
Bass:

G:-----------------------------------|
D:0H2-2-2-2-5-2-2-2-0H2-2-2-2-------0|
A:-----------------------------------|
E:----------------------------0-0-0--|
 *        *        *        *       *
Guitar 3:
 
e:--------------------------------------|
B:--------------------------------------|
G:------------------12b12b12b12b12b12B~+|
D:xxx-xxxx-12~12~12~--------------------|
A:xxx-xxxx------------------------------|
D:xxx-xxxx------------------------------|
 *        *           *        *        *
Guitar 1:

e:3---3----2+++++---2+++++++--2/-----|
B:3---3----3+++++--------------------|
G:-----------------------------------|
D:-----------------------------------|
A:-----------------------------------|
D:-----------------------------------|
 *        *        *        *       *
Guitar 2:
 G         D
e:3---3----2--------2---------2-2----|
B:3---3----3--------3---------3-3----|
G:0---0----2--------2---------2-2----|
D:0---0----0--------0---------0-0----|
A:2---2------------------------------|
D:3---3------------------------------|
 *        *        *        *       *
Bass:

G:-----------------------------------|
D:1---1----0--------0---------0-0----|
A:-----------------------------------|
E:-----------------------------------|
 *        *        *        *       *
Guitar 3:

e:------------------------------------------|
B:------------------------------------------|
G:10B~++++++++++++10B~++++++++++++++10B~++++|
D:------------------------------------------|
A:------------------------------------------|
D:------------------------------------------|
 *           *           *          *       *
Guitar 1:

e:-----------------------------------|
B:-----------------------------------|
G:5-------4/-------------------------|
D:5-------5/-------4+++++++++++++++++|
A:-----------------5+++++++++++++++++|
D:-----------------------------------|
 *        *        *        *       *
Guitar 2:
 Csus2  Cmaj7sus2 Gmaj7
e:3-------3--------3-----------------|
B:3-------3--------3-----------------|
G:5-------4--------4-----------------|
D:5-------5--------4-----------------|
A:3-------3--------5-----------------|
D:3-------3--------3-----------------|
 *        *        *        *       *
Bass:

G:-----------------------------------|
D:-----------------------------------|
A:3+++++++2++++++++------------------|
E:-----------------3+++++++++++++++++|
 *        *        *        *       *
Guitar 3:

e:--------------------------------------|
B:--------------------------------------|
G:10S17B++++++++++++17S21B++++++++++++++|
D:--------------------------------------|
A:--------------------------------------|
D:--------------------------------------|
 *          *        *          *       *
Guitar 1:

e:3---3----2+++++++------------------|
B:3---3----3+++++++------------------|
G:-----------------------------------|
D:------------------00000000022222222|
A:------------------00000000022222222|
D:------------------00000000022222222|
 *        *        *        *       *
Guitar 2:
 G         D
e:3---3----2-------------------------|
B:3---3----3-------------------------|
G:0---0----2-------------------------|
D:0---0----0--------00000000022222222|
A:2---2-------------00000000022222222|
D:3---3-------------00000000022222222|
 *        *        *        *       *
Bass:

G:-----------------------------------|
D:1---1----0--------00000000222222222|
A:-----------------------------------|
E:-----------------------------------|
 *        *        *        *       *
Guitar 3:

e:------------------------------21B++++++|
B:--------------------21B+++++++---------|
G:21B++++++21B+++++++--------------------|
D:---------------------------------------|
A:---------------------------------------|
D:---------------------------------------|
 *         *         *         *         *
Guitar 1:
 D5 E5    G5 E5    D5 E5      E5
e:-----------------------------------|
B:-----------------------------------|
G:-----------------------------------|
D:0H2+++---5S2+++---0H2+++----2-2-2-2|
A:0H2+++---5S2+++---0H2+++----2-2-2-2|
D:0H2+++---5S2+++---0H2+++----2-2-2-2|
 *        *        *        * M M M M*
Guitar 2:
  E5
e:-----------------------------------|
B:-----------------------------------|
G:-----------------------------------|
D:2-2-2-2-2-2-2-2-2-2-2-2-2-2-2-2-2-2|
A:2-2-2-2-2-2-2-2-2-2-2-2-2-2-2-2-2-2|
D:2-2-2-2-2-2-2-2-2-2-2-2-2-2-2-2-2-2|
 *        *        *        *       *
Bass:

G:-----------------------------------|
D:0H2-2-2-2-5-2-2-2-0H2-2-2-2--------|
A:-----------------------------------|
E:----------------------------0-0-0-0|
 *        *        *        *       *
Guitar 3:

e:20B-20B-20B-20B-20B-20B-20B-20B-20B|
B:-----------------------------------|
G:-----------------------------------|
D:-----------------------------------|
A:-----------------------------------|
D:-----------------------------------|
 *        *        *        *        *
Outro:
4/4
Guitar 1:

e:-----------------------------------|
B:-----------------------------------|
G:-----------------------------------|
D:0H2++++++5S2++++++0H2++++++2+++++++|
A:0H2++++++5S2++++++0H2++++++2+++++++|
D:0H2++++++5S2++++++0H2++++++2+++++++|
 *        *        *        *       *
Guitar 2:

e:-----------------------------------|
B:-----------------------------------|
G:-----------------------------------|
D:0H2++++++5S2++++++0H2++++++2+++++++|
A:0H2++++++5S2++++++0H2++++++2+++++++|
D:0H2++++++5S2++++++0H2++++++2+++++++|
 *        *        *        *       *
Bass:

G:-----------------------------------|
D:0H2++++++5S2++++++0H2++++++2+++++++|
A:-----------------------------------|
E:-----------------------------------|
 *        *        *        *       *
Guitar 3:

e:-----------------------------------|
B:-----------------------------------|
G:-----------------------------------|
D:0H2++++++5S2++++++0H2++++++2+++++++|
A:0H2++++++5S2++++++0H2++++++2+++++++|
D:0H2++++++5S2++++++0H2++++++2+++++++|
 *        *        *        *       *

Order of Song:
Inro X1
Verse X8
Pre-Chorus X1
Chorus X1
Verse X8
Pre-Chorus X1
Chorus X1
Verse X8
Pre-Chorus X1
Chorus X1
Verse X8
Pre-Chorus X1
Chorus X1
Solo X1
Verse X7
Pre-Chorus X1
Chorus X1
Outro X1





Comments


Popular Janes Addiction tabs & chords
No One's Leaving Bass Tabs
Summertime Rolls Bass Tabs
Whores 5 Bass Tabs
Jane Says Chords
Thank You Boys Chords
Jane Says 2 Tabs
Jane Says Acoustic (Solo) Tabs
Just Because 5 Tabs
Whores 2 Tabs
Jane Says Ukulele


Song lyrics



↑ Back to top | Tablatures and chords are parodies/interpretations of the original songs. You may use it for private study, scholarship, research or language learning purposes only
© 2014 AZChords.com Contact us | Privacy policy | DMCA | Add/correct tabs | Request tabs | Top 50 tabs