>
 >
Just Because 5

Just Because 5 Guitar Tabs

Janes Addiction - Just Because 5 chords, tabs, tablatures, lyrics

Guitar lessons | Add/correct | Request | Top 50 tabs Artists:  A B C D E F G H I J K L M N O P Q R S T U V W X Y Z 0-9

Just Because 5 Guitar Tabs – Janes Addiction

CD, Sheet music, Poster

Do you like Just Because 5? Share with your friends now
Bass TabsBass Tabs v2TabsTabs v2Tabs v3Tabs v4Tabs v5Tabs v6
Band:Jane's Addiction
Song Title:Just Because

This is a great new song from a great band. Dave Navarro is awesome, and I hope
you guys enjoy. This is in standard tuning(E A D G B e). The strumming is very
straight forward and easy to hear in the song, so there's no point in me tabbing
it completely out. It sounds perfect to me when I play it, so enjoy.....

Intro and Main Riff(I know it looks tough, but with a little bit of practice, you
get the hang of it. The strumming is very easy to get, so I'll just leave the tab
like this:

e|-6---8p6---6---8p6---4---8p6---4---8p6-------------------------------------|
B|-x---------x---------x---------x---------13----15--------------------------|
G|-x---------x---------x---------x---------13----15--------------------------|
D|-8---------8---------6---------6---------13----15--------------------------|
A|-x---------x---------x---------x---------11----13--------------------------|
E|-6---------6---------4---------4-------------------------------------------|

Riff after Intro
e|----------------------------------------------|----------------------------|
B|----------------------------13----------------|--------13----15------------|
G|--7-7-7-7-7-7-7-7-7-7--7----13----10----9-----|--13----13----15------------|
D|--8-6-8-6-8-6-8-6-8-10-8----13----11----10----|--13----13----15------------|
A|--8-8-8-8-8-8-8-8-8-8--8----11----11----10----|--11----11----13------------|
E|--6-6-6-6-6-6-6-6-6-6--6----------9-----8-----|----------------------------|

 Verse 1                                         2nd time around
e|--6---8p6---6---8p6---4---8p6---4---8p6---|--------------------------------|
B|--x---------x---------x---------x---------|--------------------------------|
G|--x---------x---------x---------x---------|--10-10-8---13-12-7-------------|
D|--8---------8---------6---------6---------|--10-10-8---x--x--8-------------|
A|--8---------8---------6---------6---------|---8--8-6---11-10-8-------------|
E|--6---------6---------4---------4---------|------------------6-------------|

 Chorus                                           
e|---------------------------------------------------------------------------|
B|----------------------------13--------13-------13-------15-----------------|
G|--7-7-7-7-7-7-7-7-7---------13-13--------13----13-13----15-15--------------|
D|--8-6-8-6-8-6-8-6-8-8/10\8--13----13--------13----13-13----15--------------|
A|--8-8-8-8-8-8-8-8-8---------11-----------------------11--------------------|
E|--6-6-6-6-6-6-6-6-6--------------------------------------------------------|

Verse 2
e|---------------------------------|-----------------------------------------|
B|-----------13-13/15-15-13/15-15--|-13-15/17-17-15/17-17-15/17--------------|
G|--5---9----13-13/15-15-13/15-15--|-13-15/17-17-15/17-17-15/17--------------|
D|--6---10---13-13/15-15-13/15-15--|-13-15/17-17-15/17-17-15/17--------------|
A|--6---10---11-11/13-13-11/13-13--|-11-13/15-15-13/15-15-13/15--------------|
E|--4---8--------------------------|-----------------------------------------|

 Verse 1                                         2nd time around
e|--6---8p6---6---8p6---4---8p6---4---8p6---|--------------------------------|
B|--x---------x---------x---------x---------|--------------------------------|
G|--x---------x---------x---------x---------|--10-10-8---13-12-7-------------|
D|--8---------6---------6---------6---------|--10-10-8---x--x--8-------------|
A|--x---------x---------x---------x---------|---8--8-6---11-10-8-------------|
E|--6---------6---------4---------4---------|------------------6-------------|

 Chorus                                           
e|---------------------------------------------------------------------------|
B|----------------------------13--------13-------13-------15-----------------|
G|--7-7-7-7-7-7-7-7-7---------13-13--------13----13-13----15-15--------------|
D|--8-6-8-6-8-6-8-6-8-8/10\8--13----13--------13----13-13----15--------------|
A|--8-8-8-8-8-8-8-8-8---------11-----------------------11--------------------|
E|--6-6-6-6-6-6-6-6-6--------------------------------------------------------|

Verse 2
e|---------------------------------|-----------------------------------------|
B|-----------13-13/15-15-13/15-15--|-13-15/17-17-15/17-17-15/17--------------|
G|--5---9----13-13/15-15-13/15-15--|-13-15/17-17-15/17-17-15/17--------------|
D|--6---10---13-13/15-15-13/15-15--|-13-15/17-17-15/17-17-15/17--------------|
A|--6---10---11-11/13-13-11/13-13--|-11-13/15-15-13/15-15-13/15--------------|
E|--4---8--------------------------|-----------------------------------------|

 Go BACK to Verse 1 again                        2nd time around
e|--6---8p6---6---8p6---4---8p6---4---8p6---|--------------------------------|
B|--x---------x---------x---------x---------|--------------------------------|
G|--x---------x---------x---------x---------|--10-10-8---13-12-7-------------|
D|--8---------8---------6---------6---------|--10-10-8---x--x--8-------------|
A|--8---------8---------6---------6---------|---8--8-6---11-10-8-------------|
E|--6---------6---------4---------4---------|------------------6-------------|

e|--------------------------------8-----8---11---10--------------------------|
B|-9h11-11-11v-11-11-9h11-11-11v----9-4---9----9----11-----------------------|
G|---------------------------------------------------------------------------|
D|---------------------------------------------------------------------------|
A|---------------------------------------------------------------------------|
E|---------------------------------------------------------------------------|

These Chords are played over the above part
e|---------------------------------------------------------------------------|
B|-----------13--------15--------13------------------------------------------|
G|--5---9----13----14--15----12--13------------------------------------------|
D|--6---10---13----15--15----13--13------------------------------------------|
A|--6---10---11----15--13----13--11------------------------------------------|
E|--4---8----------13--------11----------------------------------------------|

This is the mini solo break in the song
e|-----13------------14-----------13-----------------------------------------|
B|-----16b18r16------17b19r17-----16b18r16-----------------------------------|
G|-13~----------13~-----------15~----------14~-------------------------------|
D|---------------------------------------------------------------------------|
A|---------------------------------------------------------------------------|
E|---------------------------------------------------------------------------|

After the Pause play this:
e|------------------------------------|--------------------------------------|
B|------------------------------------|----------------13---15--15--16p15-15-|
G|--7---------13---------10~------10~-|--7---------13--13---15--15--15----15-|
D|--8---------x-----9/11-----9/10-----|--8---------13--13---15--15--15----15-|
A|--8----6/11-11----------------------|--8----6/11-11--11---13--13--13----13-|
E|--6-------------------------------|--6-------------------------------------|

Final Solo Starts at 3:24
e|---------------------------------------------------------------------------|
B|--/11~-9~-8~-9~-----9------------------------------------------------------|
G|-----------------6-3---6-3-6-5-5-5-5-3-3-3-3-1-----------------------------|
D|---------------------------------------------------------------------------|
A|---------------------------------------------------------------------------|
E|---------------------------------------------------------------------------|

Solo Continued
e|---------------------------------------------------------------------------|
B|---12b13-12b14-12b13-12b14-------------------------------------------------|
G|----------------------------9b11r9-9b11r9-10-8-6-3-------------------------|
D|---------------------------------------------------------------------------|
A|---------------------------------------------------------------------------|
E|---------------------------------------------------------------------------|

Final Part of Solo and Song
e|---------------------------------------------------------------------------|
B|----------7-4--------6----7-4-6--------------------------------------------|
G|-5b7r5-3------4b6r4----2v-6-3-5-2v-----------------------------------------|
D|---------------------------------------------------------------------------|
A|---------------------------------------------------------------------------|
E|---------------------------------------------------------------------------|





Comments


Popular Janes Addiction tabs & chords
End To The Lies Bass Tabs
I Would For You Bass Tabs
I Would For You 1 Bass Tabs
Of Course Chords
Been Caught Stealin Tabs
City Song Tabs
Had A Dad 1 Tabs
Just Because 1 Tabs
Summertime Rolls Tabs
Up The Beach Tabs


Song lyrics



↑ Back to top | Tablatures and chords are parodies/interpretations of the original songs. You may use it for private study, scholarship, research or language learning purposes only
© 2014 AZChords.com Contact us | Privacy policy | DMCA | Add/correct tabs | Request tabs | Top 50 tabs