>
 >
Just Because 4

Just Because 4 Guitar Tabs

Janes Addiction - Just Because 4 chords, tabs, tablatures, lyrics

Guitar lessons | Add/correct | Request | Top 50 tabs Artists:  A B C D E F G H I J K L M N O P Q R S T U V W X Y Z 0-9

Just Because 4 Guitar Tabs – Janes Addiction

CD, Sheet music, Poster

Do you like Just Because 4? Share with your friends now
Bass TabsBass Tabs v2TabsTabs v2Tabs v3Tabs v4Tabs v5Tabs v6
Tuning: Standard (E A D G B e)

This is my try at tabbing Jane's Addiction's new single. It's for one guitar
(not sure if there's two), and it's very straight forward, since it goes all the
way through the song, and you dont have to figure out the order of things. Please
rate and correct it. Thanks. 

/: Slide up
\: Slide down
x: Mute string
p: Pull off
b: Bend string
 
Intro:
e|--------------------------------------------------------------------------|
B|--------------------------------------------------------------------------|
G|-------15-15-------15-15-------17\15-------15-15-------15-15-------17\15--|
D|--------x--x--------x--x--------------------x--x--------x--x--------------|
A|-13-13-13-13-13-13-13-13-13-13-------13-13-13-13-13-13-13-13-13-13--------|
E|--------------------------------------------------------------------------|

e|--------------------------------------------------------------------------|
B|-------11-11-------11-11-------13/11-------11-11-------11-11-------13\11--|
G|--------------------------------------------------------------------------|
D|--------------------------------------------------------------------------|
A|-11-11-------11-11-------11-11-------11-11-------11-11-------11-11--------|
E|--------------------------------------------------------------------------|

e|--------------------------------------------------------------------------|
B|--------------------------------------------------------------------------|
G|-------15-15-------15-15-------17\15-------15-15-------15-15-------17\15--|
D|--------x--x--------x--x--------------------x--x--------x--x--------------|
A|-13-13-13-13-13-13-13-13-13-13-------13-13-13-13-13-13-13-13-13-13--------|
E|--------------------------------------------------------------------------|

e|--------------------------------------------------------------------------|
B|-------11-11-------11-11-------13-----------------------------------------|
G|-------------------------------------16-16-16-16-16-16-16/18-18-18-18-18--|
D|--------------------------------------x--x--x--x--x--x--x--x--x--x--x--x--|
A|-11-11-------11-11-------11-11-------14-14-14-14-14-14-14/16-16-16-16-16--|
E|--------------------------------------------------------------------------|

Verse 1:
e|--------------------------------------------------------------------------|
B|--------------------------------------------------------------------------|
G|--------------------------------------13-13-13-13-13-13-x-x-8-8-x-x-8-8-8-|
D|-8-6/8-6/8-8-8-6/8--8-6/8-6/8-8-8-6/8--x--x--x--x--x--x-x-x-x-x-x-x-x-x-x-|
A|-x-x---x---x-x-x----x-x---x---x-x-x---11-11-11-11-11-11-x-x-6-6-x-x-6-6-6-|
E|-6-4/6-4/6-6-6-4/6--6-4/6-4/6-6-6-4/6-------------------------------------|
                          |===========2X===========|                    
e|--------------------------------------------------------------------------|
B|--------------------------------------------------------------------------|
G|--------------------------------------/15-15-15-15-15-16-16-16-16/18-18-18|
D|-8-6/8-6/8-8-8-6/8--8-6/8-6/8-8-8-6/8---x--x--x--x--x--x--x--x--x-----x--x|
A|-x-x---x---x-x-x----x-x---x---x-x-x---/13-13-13-13-13-14-14-14-14/16-16-16|
E|-6-4/6-4/6-6-6-4/6--6-4/6-4/6-6-6-4/6-------------------------------------|

Chorus 1:
e|--------------------------------------------------------------------------|
B|--------------------------------------------------------------------------|
G|-------15-15-------15-15-------17\15-------15-15-------15-15-------17\15--|
D|--------x--x--------x--x--------------------x--x--------x--x--------------|
A|-13-13-13-13-13-13-13-13-13-13-------13-13-13-13-13-13-13-13-13-13--------|
E|--------------------------------------------------------------------------|

e|--------------------------------------------------------------------------|
B|-------11-11-------11-11-------13/11-------11-11-------11-11-------13\11--|
G|--------------------------------------------------------------------------|
D|--------------------------------------------------------------------------|
A|-11-11-------11-11-------11-11-------11-11-------11-11-------11-11--------|
E|--------------------------------------------------------------------------|

e|--------------------------------------------------------------------------|
B|--------------------------------------------------------------------------|
G|-------15-15-------15-15-------17\15-------15-15-------15-15-------17\15--|
D|--------x--x--------x--x--------------------x--x--------x--x--------------|
A|-13-13-13-13-13-13-13-13-13-13-------13-13-13-13-13-13-13-13-13-13--------|
E|--------------------------------------------------------------------------|

e|--------------------------------------------------------------------------|
B|-------11-11-------11-11-------13-----------------------------------------|
G|-------------------------------------10---10----8-------13---11-----------|
D|--------------------------------------x----x----x--------x----x----8------|
A|-11-11-------11-11-------11-11--------8----8----6-------11----9----x------|
E|-------------------------------------------------------------------6------|

Pre-Verse
e|--------------------------------------------------------------------------|
B|--------------------------------------------------------------------------|
G|--------------------------------------------------------------------------|
D|15-13/15-13/15b-13/15--15-13/15-13/15b-13/15-17----------------13----11---|
A|-x--x-----x------x------x--x-----x------x-----x-13-11----13-11----11---13\|
E|13-11/13-11/13b-11/13--13-11/13-11/13b-11/13-15-------11------------------|

Verse 2:
e|--------------------------------------------------------------------------|
B|--------------------------------------------------------------------------|
G|--------------------------------------13-13-13-13-13-13-x-x-8-8-x-x-8-8-8-|
D|-8-6/8-6/8-8-8-6/8--8-6/8-6/8-8-8-6/8--x--x--x--x--x--x-x-x-x-x-x-x-x-x-x-|
A|-x-x---x---x-x-x----x-x---x---x-x-x---11-11-11-11-11-11-x-x-6-6-x-x-6-6-6-|
E|-6-4/6-4/6-6-6-4/6--6-4/6-4/6-6-6-4/6-------------------------------------|
                          |===========2X===========|                    
e|--------------------------------------------------------------------------|
B|--------------------------------------------------------------------16----|
G|--------------------------------------x-x-13-13-13-13-x--15\13------------|
D|-8-6/8-6/8-8-8-6/8--8-6/8-6/8-8-8-6/8-x-x--x--x--x--x-x--------13/15------|
A|-x-x---x---x-x-x----x-x---x---x-x-x---x-x-11-11-11-11-x-------------------|
E|-6-4/6-4/6-6-6-4/6--6-4/6-4/6-6-6-4/6-------------------------------------|

Chorus 2:
e|--------------------------------------------------------------------------|
B|--------------------------------------------------------------------------|
G|-------15-15-------15-15-------17\15-------15-15-------15-15-------17\15--|
D|--------x--x--------x--x--------------------x--x--------x--x--------------|
A|-13-13-13-13-13-13-13-13-13-13-------13-13-13-13-13-13-13-13-13-13--------|
E|--------------------------------------------------------------------------|

e|--------------------------------------------------------------------------|
B|-------11-11-------11-11-------13/11-------11-11-------11-11-------13\11--|
G|--------------------------------------------------------------------------|
D|--------------------------------------------------------------------------|
A|-11-11-------11-11-------11-11-------11-11-------11-11-------11-11--------|
E|--------------------------------------------------------------------------|

e|--------------------------------------------------------------------------|
B|--------------------------------------------------------------------------|
G|-------15-15-------15-15-------17\15-------15-15-------15-15-------17\15--|
D|--------x--x--------x--x--------------------x--x--------x--x--------------|
A|-13-13-13-13-13-13-13-13-13-13-------13-13-13-13-13-13-13-13-13-13--------|
E|--------------------------------------------------------------------------|

e|--------------------------------------------------------------------------|
B|-------11-11-------11-11-------13-----------------------------------------|
G|-------------------------------------10---10----8-------13---13---11------|
D|--------------------------------------x----x----x--------x----x----x----8~|
A|-11-11-------11-11-------11-11--------8----8----6-------11----9----9----x~|
E|------------------------------------------------------------------------6~|

Solo:
e|-------------------------------------------------10-12-13-13--10-12-13-13-|
B|-14-14-14-14-14-14-13-13-13-13-13-13-16-16-16-16--------------------------|
G|--------------------------------------------------------------------------|
D|--------------------------------------------------------------------------|
A|--------------------------------------------------------------------------|
E|--------------------------------------------------------------------------|

e|------------------------------------------------/13-13-13-13-/15-15-15-15-|
B|-14-14-14-14-14-14-13-13-13-13-13-13-16-16-16-16--------------------------|
G|--------------------------------------------------------------------------|
D|--------------------------------------------------------------------------|
A|--------------------------------------------------------------------------|
E|--------------------------------------------------------------------------|

e|--------------------------------------------------------------------------|
B|-11-11-11-11-11-11--9--9--9--9--9--9--/11\------------------/14\11--------|
G|--------------------------------------------------------------------------|
D|--------------------------------------------------------------------------|
A|--------------------------------------------------------------------------|
E|--------------------------------------------------------------------------|

e|------------------/13\5------/14\11--/13\5--------------------------------|
B|--------------------------------------------------------------------------|
G|--------------------------------------------------------------------------|
D|--------------------------------------------------------------------------|
A|--------------------------------------------------------------------------|
E|--------------------------------------------------------------------------|

Breakdown (?):
e|--------------------------------------------------------------------------|
B|--------------------------------------------------------------------------|
G|-3-3-3-3-3-3-3-3-3-3-3-3-3-3-3-3------------------------------------------|
D|-x-x-x-x-x-x-x-x-x-x-x-x-x-x-x-x------------------------------------------|
A|-1-1-1-1-1-1-1-1-1-1-1-1-1-1-1-1---/11-----------/8----/8-----------------|
E|--------------------------------------------------------------------------|

e|--------------------------------------------------------------------------|
B|--------------------------------------------------------------15-16\15----|
G|-3-3-3-3-3-3-3-3-3-3-3-3-3-3-3-3---------------15-15-15-15-------------15-|
D|-x-x-x-x-x-x-x-x-x-x-x-x-x-x-x-x----------------x--x--x--x----------------|
A|-1-1-1-1-1-1-1-1-1-1-1-1-1-1-1-1---/13---------13-13-13-13/15~------------|
E|--------------------------------------------------------------------------|

Chorus 3:
e|--------------------------------------------------------------------------|
B|--------------------------------------------------------------------------|
G|-------15-15-------15-15-------17\15-------15-15-------15-15-------17\15--|
D|--------x--x--------x--x--------------------x--x--------x--x--------------|
A|-13-13-13-13-13-13-13-13-13-13-------13-13-13-13-13-13-13-13-13-13--------|
E|--------------------------------------------------------------------------|

e|--------------------------------------------------------------------------|
B|-------11-11-------11-11-------13/11-------11-11-------11-11-------13\11--|
G|--------------------------------------------------------------------------|
D|--------------------------------------------------------------------------|
A|-11-11-------11-11-------11-11-------11-11-------11-11-------11-11--------|
E|--------------------------------------------------------------------------|

e|--------------------------------------------------------------------------|
B|--------------------------------------------------------------------------|
G|-------15-15-------15-15-------17\15-------15-15-------15-15-------17\15--|
D|--------x--x--------x--x--------------------x--x--------x--x--------------|
A|-13-13-13-13-13-13-13-13-13-13-------13-13-13-13-13-13-13-13-13-13--------|
E|--------------------------------------------------------------------------|

e|--------------------------------------------------------------------------|
B|-------11-11-------11-11-------13-----------------------------------------|
G|-------------------------------------10---10----8------10---10----8-------|
D|--------------------------------------x----x----x-------x----x----x-------|
A|-11-11-------11-11-------11-11--------8----8----6-------8----8----6-------|
E|--------------------------------------------------------------------------|

e|----------------------|
B|----------------------|
G|-13---13---12---------|
D|--x----x----x----8~---|
A|-11---11---10----x~---|
E|-----------------6~---|

Outro:
e|--------------------------------------------------------------------------|
B|--------------------------------------------------------------------------|
G|-15-15-15-15-15-15-13-13-13-13-13-13-12-12-12-12-13b----------------------|
D|----------------------------------------------------13b-------------------|
A|-------------------------------------------------------13b-15-15-15\13-13-|
E|--------------------------------------------------------------------------|

e|--------------------------------------------------------------------------|
B|----------------------------/14-14-14-14-14-14-14-------------------------|
G|---------------------------------------------------/10--/10--10p8---------|
D|------------------------------------------------------------------11p9----|
A|-15\14--14-14-14\12--12-12------------------------------------------------|
E|--------------------------------------------------------------------------|

e|-----------------------------------------------|
B|-----------------------------------------------|
G|----------------------------/11\8---/10\5~-----|
D|--/11\8------------/10\7-----------------------|
A|-----------------------------------------------|
E|-----------------------------------------------|





Comments


Popular Janes Addiction tabs & chords
Im Not An Addict Bass Tabs
True Nature Bass Tabs
Been Caught Stealin 1 Tabs
Ocean Size 2 Tabs
Of Course Tabs
Pigs In Zen 1 Tabs
Stop 2 Tabs
Ted, Just Admit It.. Tabs
Thank You Boys 1 Tabs
Had A Dad Ukulele


Song lyrics



↑ Back to top | Tablatures and chords are parodies/interpretations of the original songs. You may use it for private study, scholarship, research or language learning purposes only
© 2014 AZChords.com Contact us | Privacy policy | DMCA | Add/correct tabs | Request tabs | Top 50 tabs