» » »

Janes Addiction, Just Because Tabs (ver.4)

Artists:  A B C D E F G H I J K L M N O P Q R S T U V W X Y Z # 

Just Because Tabs (ver.4)

Janes Addiction Tabs
 Rating:
3.7/5 (6 votes)
Just Because lessons Tabs too difficult? Try these video lessons and learn fast
1
                Janes Addiction
Strays: (2003)
Guitar: Dave Navarro
Music: Janes Addiction
Tuning: Eb Ab Db Gb Bb Eb
Notes:.This is my Second tab ever tab that i have
put on-line so if you think its cr*p tell me or if you think its bad ass tell me 
thank you .PS Mr Navarro rules so go buy his solo album "trust no one".

NH= Natural Harmonics
h = hammer-on
p = pull-off
b = bend
/ = slide up
\ = slide down
5 = power chord
! = Flat (as in Guitar tuning)
% = sharp

Intro(Pt1)
                                  BU  BD
eb|----------------------------------------------------------------------------|
Bb|------12---12-----12-12---1212(14)(12)------12---12-----12-12---1212(14)(12)|
Gb|----------------------------------------------------------------------------|
Db|--9-9--------9--9-------9---------------9-9--------9--9-------9-------------|
Ab|----------------------------------------------------------------------------|
Eb|----------------------------------------------------------------------------|


Intro(Pt2)

eb|------------------------------------------------------------------------------|
Bb|------12--12------12-12---12-12(14)(12)------12--12------12-12---12-12(14)(12)|
Gb|------------------------------------------------------------------------------|
Db|------------------------------------------------------------------------------|
Ab|12-12-------12-12------12--------------12-12-------12-12------12--------------|
Eb|------------------------------------------------------------------------------|


Intro(Pt3)
                                 S
eb|------------------------------------------------|
Bb|/14--14--14--14--14--14--14--14-16--16--16--16-\|
Gb|/14--14--14--14--14--14--14--14-16--16--16--16-\|
Db|/14--14--14--14--14--14--14--14-16--16--16--16-\|
Ab|------------------------------------------------|
Eb|------------------------------------------------|

    A/B                            B

Verse (Pt1)

@20 secs into song
        
eb|--------------------------------------h----p---------------------|
Bb|-4--2---p-------------------------4--2-4--4-2--------h----------X|
Gb|-4--2--4-2--4--4----2-4--------2--4--2-4--4-2--4-4--2-4--4------X|
Db|-4--2--4-2--4--4----2-4--------2--4--2-4--4-2--4-4--2-4--4------X|
Ab|-2-----2----2--2----2-2-----------2-------2----2-2--2----2-------|
Eb|--------------------------0-2-------------------------------0--2-|

    B

Verse (Pt2)

eb|----------------------------------X-X--2--2-2-X-2-2--2-2-2-2-2-2-----|
Bb|-14-----14--14-14-14-14-14-14-14\-X-X--3--3-3-X-3-2--2-2-2-2-2-2-----|
Gb|-14---14--1414-14-14-14-14-14-14\-X-X--2--2-2-X-2-2--2-2-2-2-2-2--2-2|
Db|-14-14------14-14-14-14-14-14-14\-X-X--2--2-2-X-2-2--2-2-2-2-2-2--2-2|
Ab|---------------------------------------2--2-2-X-2-2--2-2-2-2-2-2--2-2|
Eb|----------------------------------------------X----------------------|
    
    A/B                                   Bm11     Bsus2/4                 

Verse (Pt3)

eb|--------------------------------------------------|
Bb|----------------------------s---------------------|
Gb|-/14-14-14-14-14-14-14-14-14-16-16-16-16-16-16\X-X|
Db|-/14-14-14-14-14-14-14-14-14-16-16-16-16-16-16\X-X|
Ab|-/14-14-14-14-14-14-14-14-14-16-16-16-16-16-16\X-X|
Eb|--------------------------------------------------|

     A/B                        B

Chorus(Pt1)

@59 secs into song

eb|--------------------------------------------5--------5------------|
Bb|--------------------------------------------2--------2---2--3--2-X|
Gb|-4----4-----4-4-4-4--4--4-4---4----4-4--S---2--------2---2--2--2-X|
Db|-4----4-----4-4-4-4--4--4-4---4----4-4-2-4--4--4-X-X-4---4--4--4-X|
Ab|-2----2-----2-2-2-2--2--2-2---2----2-2------2--2-X-X-2---2--2--2-X|
Eb|------------------------------------------------------------------|

   B5                                          B9             Bm7 B9              

Chorus(Pt2)

eb|-5--------5----------------------------------------------------|
Bb|-2--------2----2-3---3-X---------------------------------------|
Gb|-2--------2----2-2---2-X----11-11-11-11----9------14-14-13---4-|
Db|-4--4-X-X-4----4-4---4-X----11-11-11-11----9------XX-XX-XX---4-|
Ab|-2--2-X-X-2----2-2---2-X----9--9--9--9-----7------12-12-11---2-|
Eb|---------------------------------------------------------------|

    B9             Bm7  B9    F%5             E5                B5


Bridge Riff(Pt2)

@1Min21Secs into song

eb|----------------------------------------------------------------|
Bb|----------------------------------------------------------------|
Gb|-4--2-4---2-4-4---2-4---------2--4---2-4-4-2-4-4---4-2-4-------2|
Db|-4--2-4---2-4-4---2-4---2--4--2--4---2-4-4-2-4-4---4-2-4-2--4--2|
Ab|------------------------2--4-----------------------------2--4---|
Eb|----------------------------------------------------------------|

    B5                    E5 F%5 A5 B5                     E5 F%5 A5

Bribge Riff(Pt2)

eb|------------------------------------------------------------------------|
Bb|---14-14-14-14-14-14----14-14-14-14-14--------17-------------16---------|
Gb|------------14-14-14-14-14-14-14-14-14-14-14--------14-14-14-----16-16-\|
Db|---------------------14-14-14------------------------------------16-16-\|
Ab|------------------------------------------------------------------------|
Eb|------------------------------------------------------------------------|

     A/B                                                        B

Middle Section(Pt1)

@2Min15Secs into song


eb|--10-10-10-10-10-10-9-9-9-9-9-9-12-12-12-12-11-12-14-14-14-14-11-12-14-14-14-14|
Bb|-------------------------------------------------------------------------------|
Gb|-------------------------------------------------------------------------------|
Db|-------------------------------------------------------------------------------|
Ab|-------------------------------------------------------------------------------|
Eb|-------------------------------------------------------------------------------|

   

Middle Section(Pt2)

eb|11-12-14-14-10-10-10-10-10-10-9-9-9-9-9-9-12-12-12-12-13-13-13-13-13-13-13-13|
Bb|-----------------------------------------------------------------------------|
Gb|-----------------------------------------------------------------------------|
Db|-----------------------------------------------------------------------------|
Ab|-----------------------------------------------------------------------------|
Eb|-----------------------------------------------------------------------------|
                                                        
Middle Section(Pt3)

eb|16-16-16-16-16-16-16-16------------------------------|
Bb|-----------------------14--10-12--10--10-10-10-10-10\|
Gb|-----------------------------------------------------|
Db|-----------------------------------------------------|
Ab|-----------------------------------------------------|
Eb|-----------------------------------------------------|
                                        
Middle Section(Pt4)
                          
                           PB12               PB14        PB12
     BU    BD                  BD                 BD           BD      ~~~~~~~~~~~~~~~~~~
eb|14(15)---(14)---12--------(14)--(12)-------(15)-(14)-12--(14)-(12)--------------------|
Bb|------------------------------------11----------------------------11------------------|
Gb|--------------------------------------------------------------------------------------|
Db|--------------------------------------------------------------------------------------|
Ab|--------------------------------------------------------------------------------------|
Eb|--------------------------------------------------------------------------------------|


Outro Solo(Pt1)

@3Min24Secs into song


        BU       BU                    BU   BD
eb|------7-------7---------------------------------------------------------|
Bb|-11-(12)-11-(12)--10--10-10-9-9---10-(11)-(10)--7--------10-10--10------|
Gb|--------------------------------------------------7---h------------7-6--|
Db|-----------------------------------------------------7-9---------------9|
Ab|------------------------------------------------------------------------|
Eb|------------------------------------------------------------------------|


Outro Solo(Pt2)

                                     BU         BU             BU
e|--s--------------s------------9-----------9----------9--9\----------------|
B|12-14-14-14-14-14-12---12--10-9---12(14)----------------9\-----7-------7--|
G|XX-XX-XX-XX-XX-XX-XX---XX--XX----------------11(13)---------9-(11)--9-(11)|
D|9--11-11-11-11-11-9----9---7----------------------------------------------|
A|--------------------------------------------------------------------------|
D|--------------------------------------------------------------------------|


Outro Solo(Pt3)

    BU  BD         BU    BD      BU   BD      BU    BD     BU    BD
e|--------------------------------------------------------------------|
B|------------S-------------------------------------------------------|
G|-9(11)-(9)-7-6------------------------------------------------------|
D|----------------9(11)----(9)--8(11)---(8)--9(12)---(8)---8(11)---(8)|
A|--------------------------------------------------------------------|
D|--------------------------------------------------------------------|
            
Submit corrections

comments powered by Disqus
↑ Back to top | Janes Addiction Tabs for Just Because. Lyrics for acoustic guitar and electric guitar. 1 Tablatures and chords are parodies/interpretations of the original songs. You may use it for private study, scholarship, research or language learning purposes only