» » »

Jane Says Bass tabs (ver.2)

Artists:  A B C D E F G H I J K L M N O P Q R S T U V W X Y Z # 

Jane Says Bass tabs (ver.2)

Janes Addiction
Rating:
0/5 (0 votes)

Hard to play? Try these video lessons and learn fast.
                Main riff
G|-----------------------------|
D|-----------------------------|
A|-----------------2-----------|
E|--3--3--5--5--5-----5--3--5--|


"I'm gonna kick tomorrow" part
G|---------------------|
D|--5-5-5-4-4----------|
A|------------7-7-4-4--|
E|---------------------|

Main Riff, x 16
 
" I'm gonna kick tomorrow " part x 4
 
Main Riff x 3 

" She can't hit "
G|----------------|
D|----------------|
A|----------------|
E|--3-3-3----5-5--|
 
Main Riff x 16
 
" I want them if they want me " part
G|----------------------|
D|--5--55555-4----------|
A|--------------7-4-----|
E|-------------------5--| x 4


Main riff x3
 
" She can't hit" x 1
 
Main Riff x 5
 
 " I want them if they want me" ( when he says “ jaaaaaaane says ” ) x4
  
Main lick x 14
            
Hard to play? Try these video lessons and learn fast. | Correct




comments powered by Disqus
↑ Back to top | Tablatures and chords are parodies/interpretations of the original songs. You may use it for private study, scholarship, research or language learning purposes only