» » »

Jane Says Bass tabs (ver.1)

Artists:  A B C D E F G H I J K L M N O P Q R S T U V W X Y Z # 

Jane Says Bass tabs (ver.1)

Janes Addiction
Rating:
4/5 (2 votes)

Hard to play? Try these video lessons and learn fast.
                #------------------------------------------------------------------------------##

"jane says"
 
 
 
intro/main lick: 
"jane says..."
G|-----------|
D|-----------|
A|-----------|
E|--3---5-5--|
[16 times]
 
"i'm gonna kick tomorrow..."
G|---------------------|
D|--5-55555--4---------|
A|---------------7--4--|
E|---------------------|
[4 times]
 
main lick, 16 times
 
"i'm gonna kick tomorrow...", 4 times
 
main lick, 3 times
 
 "she can't hit!"
G|----------------|
D|----------------|
A|----------------|
E|--3-3-3----5-5--|
 
main lick, 16 times
 
"i want them if they want me..."
G|----------------------|
D|--5--55555-4----------|
A|--------------7-4-----|
E|-------------------5--|
[4 times, the low A is on the last time only.]
 
main lick, 3 times
 
"she can't hit!"
 
main lick, 5 times
 
"jaaaaane says" lick is the same as "i want them if they want me"
play it 4 times.
 
main lick 14 times, with a second bass playing this:
 
G|-----------------|--12----14----|--12---------------------|
D|-----------12h14-|--------------|-----12------------------|
A|-10--12-12-------|----------12--|--------12-12-12--12-12--|
E|-----------------|--------------|-------------------------|
 
G|--0--12/14--------------|
D|------------7-7--14-----|
A|--------------------12--|
E|------------------------|
[4 times]
 
G|-12--12-12-12-12----14--|
D|-----------------12-----|
A|------------------------|
E|------------------------|
[twice, into a fade]
 
--

"i'm in the midst of a trauma, leave a message and i'll call you back..."

-d
            
Hard to play? Try these video lessons and learn fast. | Correct




comments powered by Disqus
↑ Back to top | Tablatures and chords are parodies/interpretations of the original songs. You may use it for private study, scholarship, research or language learning purposes only