» » »

Janes Addiction, Im Not An Addict Tabs (ver.1)

Artists:  A B C D E F G H I J K L M N O P Q R S T U V W X Y Z # 

Im Not An Addict Tabs (ver.1)

Janes Addiction Tabs
Rating:
0/5 (0 votes)
Im Not An Addict lessons Tabs too difficult? Try these video lessons and learn fast
                (Intro)
     ooooooh ooh...   
E||----------------------|----------------------|----------------------|
B||----------------------|----------------------|----------------------|
G||----------------------|----------------------|----------------------|
D||----------------------|----------------------|----------------------|
A||--6----6----7---------|--6----6----7---------|--6----6----7---------|
E||----------------------|----------------------|----------------------|


    
----------------------|----------------------|----------------------|
----------------------|----------------------|----------------------|
----------------------|----------------------|----------------------|
----------------------|----------------------|----------------------|
--6----6----7---------|--6----6----7---------|--6----6----7---------|
----------------------|----------------------|----------------------|


    
--------------------------|--------------------------|
--------------------------|--------------------------|
-----------------6--6--6--|--6--6--6--6--4--4--4--4--|
--7--7--7--7--7--7--7--7--|--6--6--6--6--6--6--6--6--|
--7--7--7--7--7--7--7--7--|--4--4--4--4--4--4--4--4--|
--5--5--5--5--5--5--5--5--|--------------------------|


   
--------------------------|--------------------------|
--------------------------|--------------------------|
--4--4--4--4--4--4--4--4--|-----------------6--6--6--|
--4--4--4--4--4--4--4--4--|--7--7--7--7--7--7--7--7--|
--2--2--2--2--2--2--2--2--|--7--7--7--7--7--7--7--7--|
--------------------------|--5--5--5--5--5--5--5--5--|


     
--------------------------|--------------------------|
--------------------------|--------------------------|
--6--6--6--6--4--4--4--4--|--4--4--4--4--4--4--4--4--|
--6--6--6--6--6--6--6--6--|--4--4--4--4--4--4--4--4--|
--4--4--4--4--4--4--4--4--|--2--2--2--2--2--2--2--2--|
--------------------------|--------------------------|


     
--------------------------|--------------------------|
--------------------------|--------------------------|
--4--4--4--4--------------|-----------------6--6--6--|
--4--4--4--4--4--4--4--4--|--7--7--7--7--7--7--7--7--|
--2--2--2--2--2--2--2--2--|--7--7--7--7--7--7--7--7--|
--------------------------|--5--5--5--5--5--5--5--5--|


     
--------------------------|--------------------------|
--------------------------|--------------------------|
--6--6--6--6--4--4--4--4--|--4--4--4--4--4--4--4--4--|
--6--6--6--6--6--6--6--6--|--4--4--4--4--4--4--4--4--|
--4--4--4--4--4--4--4--4--|--2--2--2--2--2--2--2--2--|
--------------------------|--------------------------|


     
--------------------------|--------------------------|
--------------------------|--------------------------|
--4--4--4--4--------------|--------------------------|
--4--4--4--4--4--4--4--4--|--2--2--2--2--4--4--4--4--|
--2--2--2--2--2--2--2--2--|--2--2--2--2--4--4--4--4--|
--------------------------|--0--0--0--0--2--2--2--2--|


     
--------------------------|--------------------------|
--------------------------|--------------------------|
--------------------------|--------------------------|
--2--2--2--2--2--2--2--2--|--2--2--2--2--4--4--4--4--|
--0--0--0--0--0--0--0--0--|--2--2--2--2--4--4--4--4--|
--x--x--x--x--x--x--x--x--|--0--0--0--0--2--2--2--2--|


     
--------------------------|--------------------------|
--------------------------|--------------------------|
--------------------------|--------------------------|
--2--2--2--2--2--2--2--2--|--2--2--2--2--2--2--2--2--|
--0--0--0--0--0--0--0--0--|--0--0--0--0--0--0--0--0--|
--x--x--x--x--x--x--x--x--|--x--x--x--x--x--x--x--x--|


    
--------------------------|--------------------------|
--------------------------|--------------------------|
--9--9--9--9--9--9--9--9--|--7--7--7--7--7--7--7--7--|
--9--9--9--9--9--9--9--9--|--7--7--7--7--7--7--7--7--|
--7--7--7--7--7--7--7--7--|--5--5--5--5--5--5--5--5--|
--------------------------|--------------------------|


      
----------------------------------|----------------------------------|
----------------------------------|----------------------------------|
--16--16--16--16--16--16--16--16--|--16--16--16--16--16--16--16--16--|
--16--16--16--16--16--16--16--16--|--16--16--16--16--16--16--16--16--|
--14--14--14--14--14--14--14--14--|--14--14--14--14--14--14--14--14--|
----------------------------------|----------------------------------|


  
--------------------------|--------------------------|
--------------------------|--------------------------|
--9--9--9--9--9--9--9--9--|--7--7--7--7--7--7--7--7--|
--9--9--9--9--9--9--9--9--|--7--7--7--7--7--7--7--7--|
--7--7--7--7--7--7--7--7--|--5--5--5--5--5--5--5--5--|
--------------------------|--------------------------|


     
----------------------------------|----------------------------------|
----------------------------------|----------------------------------|
--16--16--16--16--16--16--16--16--|--16--16--16--16--16--16--16--16--|
--16--16--16--16--16--16--16--16--|--16--16--16--16--16--16--16--16--|
--14--14--14--14--14--14--14--14--|--14--14--14--14--14--14--14--14--|
----------------------------------|----------------------------------|


  
--------------------------|-------------------|----------------------|
--------------------------|-------------------|----------------------|
--5--5--5--5--5--5--5--5--|--2----------------|----------------------|
--5--5--5--5--5--5--5--5--|--2----------------|--2----2----2----2----|
--3--3--3--3--3--3--3--3--|--0----------------|--2----2----2----2----|
--------------------------|-------------------|--0----0----0----0----|


    
----------------------|----------------------|----------------------|
----------------------|----------------------|----------------------|
----------------------|----------------------|----------------------|
--4----4----4----4----|--2----2----2----2----|--2----2----2----2----|
--4----4----4----4----|--0----0----0----0----|--0----0----0----0----|
--2----2----2----2----|--x----x----x----x----|--x----x----x----x----|


       
----------------------|----------------------|----------------------|
----------------------|----------------------|----------------------|
----------------------|----------------------|----------------------|
--2----2----2----2----|--4----4----4----4----|--2----2----2----2----|
--2----2----2----2----|--4----4----4----4----|--0----0----0----0----|
--0----0----0----0----|--2----2----2----2----|--x----x----x----x----|


    
----------------------||
----------------------||
----------------------||
--2----2----2----2----||
--0----0----0----0----||
--x----x----x----x----||
            

comments powered by Disqus
↑ Back to top | Janes Addiction Tabs for Im Not An Addict. Lyrics for acoustic guitar and electric guitar. Tablatures and chords are parodies/interpretations of the original songs. You may use it for private study, scholarship, research or language learning purposes only