» » »

Janes Addiction, Im Not An Addict Bass tabs (ver.1)

Artists:  A B C D E F G H I J K L M N O P Q R S T U V W X Y Z # 

Im Not An Addict Bass tabs (ver.1)

Janes Addiction Tabs
Rating:
0/5 (0 votes)
Im Not An Addict lessons Tabs too difficult? Try these video lessons and learn fast
                May have to figure out a few rythms and stuff for yerself

1st part Played once then go to the next one when he starts to sing
G--------------------------------------------------------------|
D---------------------------------------------------------121--|
A-0-0-0-0-0-0-0-0-4-4-4-4-4-4-4-4-2-2-2-2-2-2-2-2-2-2-2-2----2-| start over
E--------------------------------------------------------------|

G---------------------------------------------------------------|
D---------------------------------------------------------------|
A-0-0-0-0-0-0-0-0-4-4-4-4-4-4-4-4-2-2-2-2-2-2-2-2-2-2-2-2-2-4---|
E-------------------------------------------------------------0-|
play once then go to next part
G--------------------------------|
D--------------------------------|
A----------------0-0-0-0-0-0-0-0-|
E-0-0-0-0-2-2-2-2----------------|

play then go back to beginning

G------------------------------------------------|
D------------------------------------------------|
A----------------0-0-0-0-0-0-0-0-0-0-0-0-0-0-0-0-|
E-0-0-0-0-2-2-2-2--------------------------------|

G-----------------44-444-|
D-222222200000000--------|
A------------------------|
E------------------------|
            
Submit corrections

comments powered by Disqus
↑ Back to top | Janes Addiction Bass for Im Not An Addict. Lyrics for acoustic guitar and electric guitar. Tablatures and chords are parodies/interpretations of the original songs. You may use it for private study, scholarship, research or language learning purposes only