>
 >
Had A Dad 2

Had A Dad 2 Guitar Tabs

Janes Addiction - Had A Dad 2 chords, tabs, tablatures, lyrics

Guitar lessons | Add/correct | Request | Top 50 tabs Artists:  A B C D E F G H I J K L M N O P Q R S T U V W X Y Z 0-9

Had A Dad 2 Guitar Tabs – Janes Addiction

CD, Sheet music, Poster

Do you like Had A Dad 2? Share with your friends now
Bass TabsChordsTabsTabs v2Tabs v3Ukulele
Tuning: (E,A,D,G,B,e)


Intro:
                                            A5                          
e-|--------------------|--------------------------------|-
B-|--------------------|--------------------------------|-
G-|----(Drum-Intro)----|--------------------2--2--2--2--|-
D-|--------------------|--------------------2--2--2--2--|-
A-|--------------------|--------------------0--0--0--0--|-
E-|--------------------|--------------------------------|-
                                                   

     A5    G5         A5                A5    G5         A      
e-|----------------------------------|----------------------------------|-
B-|------------------------x--x-14\--|------------------------x--x-14\--|-
G-|--2--2-------------2----x--x-14\--|--2--2-------------2----x--x-14\--|-
D-|--2--2-------------2----x--x-14\--|--2--2-------------2----x--x-14\--|-
A-|--0--0--5--5--5----0--------------|--0--0--5--5--5----0--------------|-
E-|--------3--3--3-------------------|--------3--3--3-------------------|-
           P.M---|                            P.M---|                      

     A5   G5          A5                A5    G5         A      
e-|----------------------------------|------------------------------------|-
B-|------------------------x--x-14\--|------------------------14--14-14\--|-
G-|--2--2-------------2----x--x-14\--|--2--2-------------2----14--14-14\--|-
D-|--2--2-------------2----x--x-14\--|--2--2-------------2----14--14-14\--|-
A-|--0--0--5--5--5----0--------------|--0--0--5--5--5----0----------------|-
E-|--------3--3--3-------------------|--------3--3--3---------------------|-
           P.M---|                            P.M---|                      



Verse:
 

     A5    G5         A5                A5    G5         A      
e-|----------------------------------|----------------------------------|-
B-|------------------------x--x-14\--|------------------------x--x-14\--|-
G-|--2--2-------------2----x--x-14\--|--2--2-------------2----x--x-14\--|-
D-|--2--2-------------2----x--x-14\--|--2--2-------------2----x--x-14\--|-
A-|--0--0--5--5--5----0--------------|--0--0--5--5--5----0--------------|-
E-|--------3--3--3-------------------|--------3--3--3-------------------|-
           P.M---|                            P.M---|                        

     A5    G5         A5                A5    G5         A      
e-|----------------------------------|------------------------------------|-
B-|------------------------x--x-14\--|------------------------14--14-14\--|-
G-|--2--2-------------2----x--x-14\--|--2--2-------------2----14--14-14\--|-
D-|--2--2-------------2----x--x-14\--|--2--2-------------2----14--14-14\--|-
A-|--0--0--5--5--5----0--------------|--0--0--5--5--5----0----------------|-
E-|--------3--3--3-------------------|--------3--3--3---------------------|-
           P.M---|                            P.M---|                      



Solo 1:


                          w/ Bar                       Pull w/ Bar
e-|----------------------------------------------------/-----------|-
B-|--20)-----20)-------20)~~~~~~~~~~----x-x-x-x-------/------------|-
G-|--19b(21)-19b(21)---19b(21)----------x-x-x-x--(0)+/-------------|-
D-|-------------------------------------x-x-x-x--------------------|-
A-|----------------------------------------------------------------|-
E-|----------------------------------------------------------------|-

     Trill                     Slow bend   Pinch Harmonic
e-|--------------------------------------------------------------|-
B-|--------------------------------------------------------------|-
G-|--------------------------------------------------------------|-
D-|--(5h7)-5h7-5-----------------)----------)--------------------|-
A-|--------------7-6-5--3---5--3b(5)------<3>b(5)----------------|-
E-|--------------------------------------------------5--3-5~~~~--|-
               P.M----------|   

e-|--------------------------------)---------------)\-------)\-----|-
B-|---------------------------x-x-5)--------x-x--19)\-19--19)\--x--|-
G-|---------------------------x-x-5---------x-x--19---19--19----x--|-
D-|----)-----------------------------7~~~~--x-x--------------------|-
A-|--3b(5)---------------------------------------------------------|-
E-|-----------5~~~~--3h5--3~~--------------------------------------|-


e-|--------)\---------------------------------------------------|-
B-|--17--19)\---------------------------------------------------|-
G-|--17--19----19p17----17~~~~----------------------------------|-
D-|------------------19-----------------------------------------|-
A-|-------------------------------------------------------------|-
E-|-------------------------------------------------------------|-



Verse:
 

     A5     G5         A5                A5     G5         A      
e-|-----------------------------------|-----------------------------------|-
B-|-------------------------x--x-14\--|-------------------------x--x-14\--|-
G-|--2-----------------2----x--x-14\--|--2-----------------2----x--x-14\--|-
D-|--2-----------------2----x--x-14\--|--2-----------------2----x--x-14\--|-
A-|--0------5--5--5----0--------------|--0------5--5--5----0--------------|-
E-|---------3--3--3-------------------|---------3--3--3-------------------|-
            P.M---|                             P.M---|                      

     A5     G5         A5                A5     G5         A      
e-|-----------------------------------|-------------------------------------|-
B-|-------------------------x--x-14\--|-------------------------14--14-14\--|-
G-|--2-----------------2----x--x-14\--|--2-----------------2----14--14-14\--|-
D-|--2-----------------2----x--x-14\--|--2-----------------2----14--14-14\--|-
A-|--0------5--5--5----0--------------|--0------5--5--5----0----------------|-
E-|---------3--3--3-------------------|---------3--3--3---------------------|-
            P.M---|                             P.M---|                      



Pre-Chorus:


     E5         G5         A5              E5           G5         A5 
e-|-------------------------------------|---------------------------------------|-
B-|-------------------------------------|---------------------------------------|-
G-|-------------------------------------|---------------------------------------|-
D-|--2----2--2--5--5--5----7------------|--2----2--2----5--5--5----7------------|-
A-|--2----2--2--5--5--5----7------------|--2----2--2----5--5--5----7------------|-
E-|--0----0--0--3--3--3----5------------|--0----0--0----3--3--3----5------------|-
    
     E5         G5         A5                G                   
e-|---------------------------------------|--3--------------------------------|-
B-|-----------------------------x--x-14\--|--3--------------------------------|-
G-|-----------------------------x--x-14\--|--0--------------------------------|-
D-|--2----2--2--5--5--5----7----x--x-14\--|--0--------------------------------|-
A-|--2----2--2--5--5--5----7--------------|--2--------------------------------|-
E-|--0----0--0--3--3--3----5--------------|--3--------------------------------|-



Chorus: 


I think the Am, C and G chords
are picked, but it's hard to here
what are played exactly. Atleast
the chords should be correct.


     D                          Am                          C            G     

e-|-----------2h3-2----------|---------------------------|---------------3-----------|-
B-|--------3---------3-------|---------------------------|--1------------3-----------|-
G-|-----2---------------2----|--2------------------------|--0------------0-----------|-
D-|--0-----------------------|--2------------------------|--2------------0-----------|-
A-|--------------------------|--0------------------------|--3------------2-----------|-
E-|--------------------------|---------------------------|---------------3-----------|-

     Am                          C            G     

e-|---------------------------|---------------3-----------|-
B-|---------------------------|--1------------3-----------|-
G-|--2------------------------|--0------------0-----------|-
D-|--2------------------------|--2------------0-----------|-
A-|--0------------------------|--3------------2-----------|-
E-|---------------------------|---------------3-----------|-

     G               G               E5              E5

e-|--3------------|--3------------|---------------|---------------|-
B-|--3------------|--3------------|---------------|---------------|-
G-|--0------------|--0------------|---------------|---------------|-
D-|--0------------|--0------------|--2------------|--2------------|-
A-|--2------------|--2------------|--2------------|--2------------|-
E-|--3------------|--3------------|--0------------|--0------------|-





Comments


Popular Janes Addiction tabs & chords
Jane Says Bass Tabs
Then She Did Bass Tabs
Up The Beach 1 Bass Tabs
Of Course Chords
Been Caught Stealing 1 Tabs
Jane Says Tabs
Stop 1 Tabs
Strays Tabs
Suffer Some Tabs
Of Course Ukulele


Song lyrics



↑ Back to top | Tablatures and chords are parodies/interpretations of the original songs. You may use it for private study, scholarship, research or language learning purposes only
© 2014 AZChords.com Contact us | Privacy policy | DMCA | Add/correct tabs | Request tabs | Top 50 tabs