» » »

Janes Addiction, Had A Dad Bass tabs (ver.1)

Artists:  A B C D E F G H I J K L M N O P Q R S T U V W X Y Z # 

Had A Dad Bass tabs (ver.1)

Janes Addiction Tabs
Rating:
0/5 (0 votes)
Had A Dad lessons Tabs too difficult? Try these video lessons and learn fast
                Had A Dad – Jane’s Addiction


Main Riff

G ------------------------------|
D ------------------------------|
A --------------------------6---|
E --5---5---3--3--3--5----------|

It has a few variations like this one

G -----------------------------|
D -----------------------------|
A --------------------------6--|
E --5---5---3--3--3--5---------|

And the 3 final times it’s played like this

G -----------------------------|
D -----------------------------|
A -----------------------------|
E --5---5---3--3--3--5---------|


I hope this helped you out. It's my first tab so it might not be perfect but I did my best.
            

comments powered by Disqus
↑ Back to top | Janes Addiction Bass for Had A Dad. Lyrics for acoustic guitar and electric guitar. Tablatures and chords are parodies/interpretations of the original songs. You may use it for private study, scholarship, research or language learning purposes only