» » »

Janes Addiction, Been Caught Stealing Tabs (ver.2)

Artists:  A B C D E F G H I J K L M N O P Q R S T U V W X Y Z # 

Been Caught Stealing Tabs (ver.2)

Janes Addiction Tabs
 Rating:
4/5 (7 votes)
Been Caught Stealing lessons Tabs too difficult? Try these video lessons and learn fast
1
                -------------------------------------------------------------------------------
                             Been Caught Stealing - Jane's Addiction
-------------------------------------------------------------------------------

Tuning: standard

/  slide up
\  slide down
h  hammer-on
p  pull-off
x  Mute note

Intro
|----6--5---------------------------------|
|----9--8---------------------------------|
|----7--6---------------------------------|
|----6--5---------------------------------|
|----8--7---------------------------------|
|----6--5---------------------------------|

Verse (Bar the 3rd fret)
|---3-3-3----3-3-3-3-3-----3-3--x-x-x--3--3-3-3-5p0-----------------------------|
|---6-6-5/6--6-6-6-6-5/6---3-3--x-x-x--3--3-3-3-3-------------------------------|
|---4-4-4----4-4-4-4-4-----4-4--x-x-x--4--4-4-4-4------4-4----------------------|
|---3-3-3----3-3-3-3-3-----3-3--x-x-x--3--3-3-3-3------3-3----------------------|
|---5-5-5----5-5-5-5-5-----5-5--x-x-x--5--5-5-5-5------5-5----------------------|
|---3-3-3----3-3-3-3-3-----3-3--x-x-x--3--3-3-3-3------3-3----------------------|
\________________________________________________________/
                                  repeat x6

Chorus
|---3--3-------8----------------------3-3-3-3-3-3--------------------------------|
|---3--3-------8--------3-5-3---------6-6-6-6-6-6-----3-----10-------------------|
|---4--4-------9--------x-x-x---------4-4-4-4-4-4-----x------x-------------------|
|---3--3-------8--------3-5-3---------3-3-3-3-3-3-----3-----12-------------------|
|---5--5-------10-------1-3-1--3-5-5--5-5-5-5-5-5-----1-----10-------------------|
|---3--3-------8---------------1-3-3--3-3-3-3-3-3--------------------------------|
            
Submit corrections

comments powered by Disqus
↑ Back to top | Janes Addiction Tabs for Been Caught Stealing. Lyrics for acoustic guitar and electric guitar. 1 Tablatures and chords are parodies/interpretations of the original songs. You may use it for private study, scholarship, research or language learning purposes only