>
 >
Been Caught Stealing 1

Been Caught Stealing 1 Bass Tabs

Janes Addiction - Been Caught Stealing 1 chords, tabs, tablatures, lyrics

Guitar lessons | Add/correct | Request | Top 50 tabs Artists:  A B C D E F G H I J K L M N O P Q R S T U V W X Y Z 0-9

Been Caught Stealing 1 Bass Tabs – Janes Addiction

CD, Sheet music, Poster

Do you like Been Caught Stealing 1? Share with your friends now
Bass TabsBass Tabs v2Bass Tabs v3TabsTabs v2Tabs v3Tabs v4
Song - Been Caught Stealing
Artist - Jane's Addiction
Album - Ritual De Lo Habitual

Intro:

G|------------|
D|------------|
A|--------6---|
E|-6----------|
          .

Main Riff:

G|--------------------------|
D|--------------------------|
A|--------------------------|
E|-3--0-0-3-3-0-0-3--0-0-3--|
                         .

Play in time with lyrics:


Small Fill:

1"Well it's    just a simple"
2"--and she    did it just like" 
3"--and we     did it just like"  
G|--------------------------|
D|--------------------------|
A|--------------------------|
E|---------3-3--------------|
          . .
1"fact"
2"that"
3"that"
G|--------------------------|
D|--------------------------|
A|--------------------------|
E|-3--0-0-3-3-0-0-3--0-0-3--|

Chorus (Walk right through the door...)

G|----------------------------------------------------------------------------|
D|--------------------------------------------------------5-------------------|
A|--3--3/10------3--------1--3--1-------------3-------3-3------5--6-----------|
E|--------------------------------1--3------3-----------------------6----5----|
                                     ^                                   .
                               Hold this note

End of Guitar Solo ("da da dada da)
G|-----------------------------------------|
D|-----------------------------------------|
A|-3-3--0-3-3-3-0-3-3-3-0-3----2----1----2-|
E|-----------------------------------------|

Outro
G|------------------------------------------|
D|--------------5---------------------------|
A|--3-------3-3----------5--6---------------|
E|----------------------------6----5----3---|
                                   .    Hold Last note

Order:

Intro x 1
Main Riff x 12
Small Fill x 1
Main Riff x 2
Chorus x 1
Main Riff x 10
Small Fill x 1
Main Riff x 2
Chorus x 1
Main Riff x 10
End of Guitar Solo x 2
Main Riff x 8
Small Fill x 1
Main Riff x 2
Chorus x 1
Outro x 1





Comments


Popular Janes Addiction tabs & chords
Ain't No Right 1 Bass Tabs
Jane Says 1 Bass Tabs
Just Because 1 Bass Tabs
My Cat's Name Is Maceo 1 Bass Tabs
Ted Just Admit It Bass Tabs
Up The Beach Bass Tabs
Wrong Girl Bass Tabs
Obvious Tabs
Stop 1 Tabs
Suffer Some Tabs


Song lyrics



↑ Back to top | Tablatures and chords are parodies/interpretations of the original songs. You may use it for private study, scholarship, research or language learning purposes only
© 2014 AZChords.com Contact us | Privacy policy | DMCA | Add/correct tabs | Request tabs | Top 50 tabs