» » »

Been Caught Stealing Bass tabs (ver.1)

Artists:  A B C D E F G H I J K L M N O P Q R S T U V W X Y Z # 

Been Caught Stealing Bass tabs (ver.1)

Janes Addiction
Rating:
5/5 (1 vote)

Hard to play? Try these video lessons and learn fast.
                Intro	    Verses			x12
G--------|-----------------|----|-----------------|
D--------|-----------------|----|-----------------|
A----7---|-----------------|----|-----------------|
E-6-----0|3013-013-013---0-|-33-|3013-013-013---0-|

Chorus
G----------|------|------------|--------|-------------|------------|-----|
D----------|------|------------|--------|-----------5-|5---5-------|-----|
A-3-3-3/11-|-3----|--1-3-1-----|------3-|-3--3-3-3----|-------5--6-|---7-|
E----------|------|--------1-3-|-3------|-------------|------------|-6---|

Solo			x10
G-----------------|-----------------|------------------|
D-----------------|-----------------|------------------|
A-----------------|3-3-3-13-3-3-133-|3-3-33-1--2--1--2-|
E3013-013-013---0-|-----------------|------------------|

G-----------------|------------------|
D-----------------|------------------|
A3-3-3-13-3-3-133-|3-3-33-1--2--1--2-|
E-----------------|------------------|

Final chorus
G----------|------|------------|--------|-------------|------------|-----|
D----------|------|------------|--------|-----------5-|5---5-------|-----|
A-3-3-3/11-|-3----|--1-3-1-----|------3-|-3--3-3-3----|-------5--6-|---7-|
E----------|------|--------1-3-|-3------|-------------|------------|-6---|
(mine, mine, mine…..)			     end on
G------------|----------------|-----|-----|
D------------|-5-5-5-5-5------|-----|-----|
A-3-3--3-3-3-|-----------5-6--|---7-|-----|
E------------|----------------|-6---|---3-|
            
Hard to play? Try these video lessons and learn fast. | Correct




comments powered by Disqus
↑ Back to top | Tablatures and chords are parodies/interpretations of the original songs. You may use it for private study, scholarship, research or language learning purposes only