» » »

Been Caught Stealing Tabs (ver.3)

Artists:  A B C D E F G H I J K L M N O P Q R S T U V W X Y Z # 

Been Caught Stealing Tabs (ver.3)

Janes Addiction
Rating:
5/5 (2 votes)

Hard to play? Try these video lessons and learn fast.
                --------------------------------------------------------------------------
                BEEN CAUGHT STEALING - Jane's Addiction
--------------------------------------------------------------------------


Tuning: Standard

Intro:

e|-6--5-|
B|-9--8-|
G|-7--6-|
D|-6--5-|
A|-8--7-|
E|-6--5-|

Verse:

e|-x---------------------------------------------------------------------|
B|-5-6-6-5-6-5--6-6-5-6-5---8-8---8-8-8--8-------------------------------|
G|-5-7-7-5-7-5--7-7-5-7-5---7-7---7-7-7--7-------------------------------|
D|-5-5-5-5-5-5--5-5-5-5-5---5-5---5-5-5--5-------------------------------|
A|-----------------------------------------------------------------------|
E|-----------------------------------------------------------------------|

e|-----------------------------------------------------------------------|
B|-6-5---8-8---8-8-8--8--------------------------------------------------|
G|-7-6---7-7---7-7-7--7--------------------------------------------------|
D|-5-4---5-5---5-5-5--5--------------------------------------------------|
A|-----------------------------------------------------------------------|
E|-----------------------------------------------------------------------|

Chorus:

e|------6----------------------------------------------------------------|
B|-5-5--5----------------------------------------------------------------|
G|-5-5--5--3-5-3---------------------------------------------------------|
D|-5-5--5--3-5-3-3-5-5--5-5-5--------------------------------------------|
A|-3-3--3--1-3-1-3-5-5--5-5-5--------------------------------------------|
E|---------------1-3-3--3-3-3--------------------------------------------|

e|-----------6---6--5----------------------------------------------------|
B|---5---5-6-5---9--8----------------------------------------------------|
G|---5---5-5-5---7--6----------------------------------------------------|
D|-5-5---5-5-5---6--5----------------------------------------------------|
A|-5-3---3-3-3---8--7----------------------------------------------------|
E|-3-------------6--5----------------------------------------------------|

Solo Interlude:

e|-8----6-7-6-7----------------------------------------------------------|
B|-8----6-7-6-7----------------------------------------------------------|
G|-9----7-8-7-8----------------------------------------------------------|
D|-10---6-7-6-7----------------------------------------------------------|
A|-10---8-9-8-9----------------------------------------------------------|
E|-8----6-7-6-7----------------------------------------------------------|

End:

e|-6--5--3-|
B|-9--8--3-|
G|-7--6--4-|
D|-6--5--5-|
A|-8--7--5-|
E|-6--5--3-|
            
Hard to play? Try these video lessons and learn fast. | Correct




comments powered by Disqus
↑ Back to top | Tablatures and chords are parodies/interpretations of the original songs. You may use it for private study, scholarship, research or language learning purposes only