» » »

Janes Addiction, Been Caught Stealin Bass tabs (ver.1)

Artists:  A B C D E F G H I J K L M N O P Q R S T U V W X Y Z # 

Been Caught Stealin Bass tabs (ver.1)

Janes Addiction Tabs
 Rating:
4/5 (8 votes)
Been Caught Stealin lessons Tabs too difficult? Try these video lessons and learn fast
                #------------------------------------------------------------------------------##

Been Caught Stealin by Janes Addiction

This is a cool song by a cool band who broke up a few years back :(
but still Perry Farrels music lives on.  Too bad Porno for Pyros isnt half
the band Janes Addiction was!!

this is the main rif for most of the song

g---------------------------------------
d---------------------------------------
a---------------------------------------
e-0-3-3---0-3--0-0-3--0-0-3-----

during "walk right through the door" this is played

g------------------------------------
d------------------------------------
a--3-3----3---1--3--1-----------
e-------------------------1--3----

then in "hey allright" this is played

g-----------------------------------------------
d---------------5------------------------------
a--3--------3-----------5--6-----------------
e----------------------------------6---5-------

there enjoy
if you know the tabs for Jane Says, or any other janes addiction song write
me
            
Submit corrections

comments powered by Disqus
↑ Back to top | Janes Addiction Bass for Been Caught Stealin. Lyrics for acoustic guitar and electric guitar. Tablatures and chords are parodies/interpretations of the original songs. You may use it for private study, scholarship, research or language learning purposes only