» » »

Janes Addiction, 1% Tabs (ver.1)

Artists:  A B C D E F G H I J K L M N O P Q R S T U V W X Y Z # 

1% Tabs (ver.1)

Janes Addiction Tabs
 Rating:
4/5 (4 votes)
1% lessons Tabs too difficult? Try these video lessons and learn fast
                

Tuning: Standard (EADGBe)

Key: B ... I think


Intro:
                                                                        
e|---------------------------------------|------------------------------------|-
B|---------x--9--x-------x--x--9---------|---------x--5--x--------------------|-
G|---------x--9--x--7h8--x--x--9--7h8----|---------x--5--x--3h4--(4)----------|-
D|----9----x--9--x--7----x--x--9--7------|----5----x--5--x--3----(3)----------|-
A|----9----------------------------------|----5-------------------------------|-
E|----7----------------------------------|----3-------------------------x\----|-

e|---------------------------------------|----------------------------------|-
B|---------x--9--x-------x--x--9---------|---------x--5--x------------------|-
G|---------x--9--x--7h8--x--x--9--7h8----|---------x--5--x--3h4--(4)--------|-
D|----9----x--9--x--7----x--x--9--7------|----5----x--5--x--3----(3)--------|-
A|----9----------------------------------|----5-----------------------------|-
E|----7----------------------------------|----3-----------------------------|-

e|---------------------------------------|----------------------------------|-
B|---------x--9--x-------x--x--9---------|---------x--5--x------------------|-
G|---------x--9--x--7h8--x--x--9--7h8----|---------x--5--x--3h4--(4)--------|-
D|----9----x--9--x--7----x--x--9--7------|----5----x--5--x--3----(3)--------|-
A|----9----------------------------------|----5-----------------------------|-
E|----7----------------------------------|----3-----------------------------|-

e|------------------------11------11----|-------10-----9-------7--------------|-
B|---------x--9--x----------------------|-------------------------------------|-
G|---------x--9--x--9/11-------11-------|----10------9-----/8-----------------|-
D|----9----x--9--x----------------------|-------------------------------------|-
A|----9---------------------------------|-------------------------------------|-
E|----7---------------------------------|-------------------------------x\----|-


Verse 1: Main Riff

e|---------------------------------------|----------------------------------|-
B|---------x--9--x-------x--x--9---------|---------x--5--x------------------|-
G|---------x--9--x--7h8--x--x--9--7h8----|---------x--5--x--3h4--(4)--------|-
D|----9----x--9--x--7----x--x--9--7------|----5----x--5--x--3----(3)--------|-
A|----9----------------------------------|----5-----------------------------|-
E|----7----------------------------------|----3-----------------------------|-

e|---------------------------------------|----------------------------------|-
B|---------x--9--x-------x--x--9---------|---------x--5--x------------------|-
G|---------x--9--x--7h8--x--x--9--7h8----|---------x--5--x--3h4--(4)--------|-
D|----9----x--9--x--7----x--x--9--7------|----5----x--5--x--3----(3)--------|-
A|----9----------------------------------|----5-----------------------------|-
E|----7----------------------------------|----3-----------------------------|-


Variations:

     :30
e|----------------------------------------|----------------------------------|-
B|---------x--9--x---)-7---)\-------------|---------x--5--x------------------|-
G|---------x--9--x--9-----9--p7---7~~~----|---------x--5--x--3h4--(4)--------|-
D|----9----x--9--x--------------9---------|----5----x--5--x--3----(3)--------|-
A|----9-----------------------------------|----5-----------------------------|-
E|----7-----------------------------------|----3-----------------------------|-

End on a A chord, and go to verse 2.


Verse 2:  

The 7 on the G-string is 
just a slight bend.

        1/4  
e|-----------------------------|----------------------)\--|-
B|-------)---)---------)---)---|------------------x--9)\--|-
G|------7---7---------7---7----|---------------7--x--9----|-
D|--9-9---9---9---9-9---9---9--|--------7--7h9------------|-
A|-----------------------------|--7h9-x-------------------|-
E|-----------------------------|--------------------------|-

Play with some variations, end 
with a A chord and a G chord.



Chorus:



    B                          A                   (x4)
e|--------------------------|---------------------------|-
B|--4-----------------------|--2----------------3-3--2--|-
G|--4-----------------------|--2----------------2-2--2--|-
D|--4-----------------------|--2----------------2-2--2--|-
A|--2-----------------------|--0----------------0-0--0--|-
E|--------------------------|---------------------------|-

    G                          A
e|--3-----------------------|------------------------------|-
B|--3-----------------------|--2------------x-x-3-3-x-2----|-
G|--0-----------------------|--2------------x-x-2-2-x-2----|-
D|--0-----------------------|--2------------x-x-2-2-x-2----|-
A|--2-----------------------|--0------------x-x-0-0-x-0----|-
E|--3-----------------------|------------------------------|-

    G                          A 
e|--3-----------------------|---------------------------|-
B|--3-----------------------|--2------------------------|-
G|--0-----------------------|--2------------------------|-
D|--0-----------------------|--2------------------------|-
A|--2-----------------------|--0------------------------|-
E|--3-----------------------|---------------------------|-



Interlude:

    C#                               C#
e|--------------------------------|--------------------------------|-
B|------------------------x-9--9--|------------------------x-9--9--|-
G|------------------------x-9--9--|------------------------x-9--9--|-
D|--11--x-x--11--x-x--11--x-9--9--|--11--x-x--11--x-x--11--x-9--9--|-
A|--11--x-x--11--x-x--11----------|--11--x-x--11--x-x--11----------|-
E|---9--x-x---9--x-x---9----------|---9--x-x---9--x-x---9----------|-
            
Submit corrections

comments powered by Disqus
↑ Back to top | Janes Addiction Tabs for 1%. Lyrics for acoustic guitar and electric guitar. Tablatures and chords are parodies/interpretations of the original songs. You may use it for private study, scholarship, research or language learning purposes only