» » »

Tightrope Wondamix Tabs (ver.1)

Artists:  A B C D E F G H I J K L M N O P Q R S T U V W X Y Z # 

Tightrope Wondamix Tabs (ver.1)

Janelle Monae
Rating:
4/5 (1 vote)

Hard to play? Try these video lessons and learn fast.
                -----------------------------------------------------------------------------
--Tightrope(wondamix) - Janelle Monae
-----------------------------------------------------------------------------

Tuning:
Standard

Play with overdrive effect on guitar.

Intro/Chorus
e|---------------------------------------------------------------------------|
B|---------------------------------------------------------------------------|
G|---------------------------------------------------------------------------|
D|--------------22--00----------------------------------22-00----------------|
A|----------------------22--00--------------------------------22-00----------|
E|----0-----0-------------------3--5--7------0-----0-----------------3--5--7-|

e|--------------------------------------------------------------------------|
B|--------------------------------------------------------------------------|
G|--------------------------------------------------------------------------|
D|--------------22-00-------------------------------------------------------|
A|--------------------22--00------------------------------------------------|
E|----0-----0-------------------3--5--7-----0-------------------------------|

Verse
e|--------------------------------------------------------------------------|
B|--------------------------------------------------------------------------|
G|--------------------------------------------------------------------------|
D|--------------22-00-------------------------------------------------------|
A|--------------------22--00-----------------------x3-----------------------|
E|----0-----0-------------------3--5--7-------------------------------------|

e|--------------------------------------------------------------------------|
B|--------------------------------------------------------------------------|
G|--------------------------------------------------------------------------|
D|--------------------------------------------------------------------------|
A|--------------22-00--------------x3---------------------------------------|
E|---0-----------------3--5--7----------------------------------------------|

e|--------------------------------------------------------------------------|
B|--------------------------------------------------------------------------|
G|--------------------------------------------------------------------------|
D|--------------------------------------------------------------------------|
A|-------------22-00--------------x3----------------------------------------|
E|---0--3-------------3--5--7-----------------------------------------------|

e|---------------------------------------------------------------------------|
B|---------------------------------------------------------------------------|
G|---------------------------------------------------------------------------|
D|-------------22-00------------------------------44-22----------------------|
A|-------------------22-00-------------------------------44--22--0--2--4-----|
E|---0-----0----------------3--5--7------2-----2-----------------------------|

e|--------------------------------------------------------------------------|
B|--------------------------------------------------------------------------|
G|------------44-22---------------------------------------------------------|
D|-------------------44-22--0--2--4-----------------------------------------|
A|---2-----2----------------------------------------------------------------|
E|------------------------------------0-------------------------------------|

At time the guitar stop and other time it get real quiet you gonna have listen for them.
            
Hard to play? Try these video lessons and learn fast. | Correct




comments powered by Disqus
↑ Back to top | Tablatures and chords are parodies/interpretations of the original songs. You may use it for private study, scholarship, research or language learning purposes only