» » »

Jan Delay, Vergiftet Bass tabs (ver.1)

Artists:  A B C D E F G H I J K L M N O P Q R S T U V W X Y Z # 

Vergiftet Bass tabs (ver.1)

Jan Delay Tabs
 Rating:
4/5 (4 votes)
Vergiftet lessons Tabs too difficult? Try these video lessons and learn fast
1
                **************************************************
* Artist: ---- Jan Delay                         *
* Song: ------ Vergiftet                         *
* ---------------------------------------------- *
* Tuning: ---- B E A D G                         *
**************************************************

------------
!= Intro: =!
------------

G|-----------------|-----------------|-----------------|
D|-----------------|-----------------|-----------------|
A|-----------------|-----------------|----------3-3-3--|
E|-3-13-3-33------1|-3-13-3-33------1|-3-13-3-33------3|
B|----------1-1-3--|----------1-1-3--|-----------------|

-------------
!= Chorus: =!
-------------

G|-----------------|-----------------|-----------------|-----------------|
D|-----------------|-----------------|-----------------|-----------------|
A|-----------------|-----------------|-----------------|----------3-3-3--|
E|-3-13-3-33------1|-3-13-3-33------1|-3-13-3-33------1|-3-13-3-33------3|
B|----------1-1-3--|----------1-1-3--|----------1-1-3--|-----------------|

-------------------
!= End of chorus =!
-------------------


G|-----------------|-----------------|-----------------|-----------------|
D|-----------------|-----------------|-----------------|-----------------|
A|-----------------|-----------------|-----------------|----------3-3-3--|
E|-----------------|-----------------|-3-13-3-33------1|-3-13-3-33------3|
B|-----------------|-----------------|----------1-1-3--|-----------------|

G|-----------------|-----------------|-----------------|-----------------|
D|-----------------|-----------------|-----------------|-----------------|
A|-----------------|-----------------|-----------------|----------3-3-3--|
E|-3-13-3-33------1|----------------1|-3-13-3-33------1|-3-13-3-33------3|
B|----------1-1-3--|----------1-1-3--|----------1-1-3--|-----------------|


--------------------
!= Play Chorus 2x =!
--------------------


G|-----------------|-----------------|-----------------|-----------------|
D|-----------------|-----------------|-----------------|-----------------|
A|-----------------|-----------------|-----------------|----------3------|
E|-3-13-3-33------1|-3-13-3-33------1|-3-13-3-33------1|-3-13-3-33-------|
B|----------1-1-3--|----------1-1-3--|----------1-1-3--|-----------------|

G|-----------------|-----------------|-----------------|-----------------|
D|-----------------|-----------------|-----------------|-----------------|
A|-----------------|-----------------|-----------------|----------3-3-3--|
E|-3-13-3-33------1|-3-13-3-33------1|-3-13-3-33------1|-3-13-3-33------3|
B|----------1-1-3--|----------1-1-3--|----------1-1-3--|-----------------|


--------------------
!= Play Chorus 1x =!
--------------------


G|-----------------|-----------------|
D|-----------------|------5\2--------|
A|-----------------|-----------------|
E|-----------------|----------3-----1|
B|-----------------|--------------3--|

G|-----------------|-----------------|-----------------|-----------------|
D|-----------------|-----------------|-----------------|-----------------|
A|-----------------|-----------------|-----------------|-----------------|
E|-3-13-3-33------1|-3-13-3-33------1|-3-13-3-33------1|----------------1|
B|----------1-1-3--|----------1-1-3--|----------1-1-3--|----------1-1-3--|

G|-----------------|-----------------|-----------------|-----------------|
D|-----------------|-----------------|-----------------|-----------------|
A|-----------------|-----------------|-----------------|----------3-3-3--|
E|-3-13-3-33------1|-3-13-3-33------1|-3-13-3-33------1|-3-13-3-33------3|
B|----------1-1-3--|----------1-1-3--|----------1-1-3--|-----------------|


--------------------
!= Play Chorus 3x =!
--------------------


G|-----------------|-----------------|-----------------|-----------------|
D|-----------------|-----------------|-----------------|-----------------|
A|-----------------|-----------------|-----------------|-----------------|
E|-3-13-3-33------1|-3-13-----------1|-3-13-3-33------1|-3-13-3-33-------|
B|----------1-1-3--|--------------3--|----------1-1-3--|-----------------|

G|-----------------|-----------------|-----------------|-----------------|
D|-----------------|-----------------|-----------------|-----------------|
A|-----------------|-----------------|-----------------|-----------------|
E|-3-13-3-33------1|-3-13-3-33------1|-----------------|-----------------|
B|----------1-1-3--|----------1-1-3--|-----------------|-----------------|

G|-----------------|-----------------|-----------------|-----------------|
D|-----------------|-----------------|-----------------|-----------------|
A|-----------------|-----------------|-----------------|----------3-3-3--|
E|-3-13-3-33------1|-3-13-3-33------1|-3-13-3-33------1|-3-13-3-33------3|
B|----------1-1-3--|----------1-1-3--|----------1-1-3--|-----------------|

G|-----------------|-----------------|-----------------|-----------------|
D|-----------------|-----------------|-----------------|-----------------|
A|-----------------|-----------------|-----------------|----------3-3-3--|
E|------3-33------1|-3-13-3---------1|-3-13-3-33------1|-3-13-3-33------3|
B|----------1-1-3--|--------------3--|----------1-1-3--|-----------------|

G|-----------------|-----------------|-----------------|-----------------|
D|-----------------|-----------------|-----------------|-----------------|
A|-----------------|-----------------|-----------------|----------3-3-3--|
E|------3-33------1|-3-13-3---------1|-3-13-3-33------1|-3-13-3-33------3|
B|----------1-1-3--|--------------3--|----------1-1-3--|-----------------|

| \  slide down
====================
            
Submit corrections

comments powered by Disqus
↑ Back to top | Jan Delay Bass for Vergiftet. Lyrics for acoustic guitar and electric guitar. 1 Tablatures and chords are parodies/interpretations of the original songs. You may use it for private study, scholarship, research or language learning purposes only