>
 >
Telat 3 Bulan

Telat 3 Bulan Guitar Tabs

Jamrud - Telat 3 Bulan chords, tabs, tablatures, lyrics

Guitar lessons | Add/correct | Request | Top 50 tabs Artists:  A B C D E F G H I J K L M N O P Q R S T U V W X Y Z 0-9

Telat 3 Bulan Guitar Tabs – Jamrud

CD, Sheet music, Poster

Do you like Telat 3 Bulan? Share with your friends now
ChordsTabsUkulele
Int: 
    E                              E
|---0--0--0--0--0--0--0--0-------0---0--0--0--0--0--0--0---------|
|---0--0--0--0--0--0--0--0-----0-----0--0--0--0--0--0--0---------|
|---1--1--1--1--1--1--1--1-0h2-------1--1--1--1--1--1--1---------|
|---2--2--2--2--2--2--2--2-----------2--2--2--2--2--2--2---------|
|---2--2--2--2--2--2--2--2-----------2--2--2--2--2--2--2---------|
|---0------------------------------0----------------------0h3-2--| 
    ^  ^  v  v  ^  ^  v  v           ^  ^  v  v  ^  ^  v 

   E                               E 
|-----0--0--0--0--0--0--0--------0---0--0--0--0--0---0---|
|-----0--0--0--0--0--0--0------0-----0--0--0--0--0---0---|
|-----1--1--1--1--1--1--1--0h2-------1--1--1--1--1h3-1---|
|-----2--2--2--2--2--2--2------------2--2--2--2--2---2---|
|-----2--2--2--2--2--2--2------------2--2--2--2--2---2---|
|--0-------------------------------0---------------------| 
      ^  v  v  ^  ^  v  v            ^  ^  v  v  ^   ^m 

Verse 1:
    E
Malam jum'at bertemu 

|---0--0--0--0--0--0--0--0--0--0--0--0--0--0--0--0--0--0--0--------0--|
|---0--0--0--0--0--0--0--0--0--0--0--0--0--0--0--0--0--0--0------0----|
|---1--1--1--1--1--1--1--1--1--1--1--1--1--1--1--1--1--1--1--0h2------|
|---2--2--2--2--2--2--2--2--2--2--2--2--2--2--2--2--2--2--2-----------|
|---2--2--2--2--2--2--2--2--2--2--2--2--2--2--2--2--2--2--2-----------|
|---0-----------------------------------------------------------------| 
    ^  ^  v  v  ^  ^  v  v  ^  ^  v  ^  ^  v  v  ^  ^  v  v

    E
Di apotik pak Mahmud 

|---0--0--0--0--0--0--0--0--0--0--0--0--0--0--0--0--0--0---------|
|---0--0--0--0--0--0--0--0--0--0--0--0--0--0--0--0--0--0---------|
|---1--1--1--1--1--1--1--1--1--1--1--1--1--1--1--1--1--1---------|
|---2--2--2--2--2--2--2--2--2--2--2--2--2--2--2--2--2--2---------|
|---2--2--2--2--2--2--2--2--2--2--2--2--2--2--2--2--2--2---------|
|-0-------------------------------------------------------0h3-2--| 
    ^  v  v  ^  ^  v  v  ^  ^  v  ^  ^  v  v  ^  ^  v  v

    E
Kau tersenyum tersipu

|---0--0--0--0--0--0--0--0--0--0--0--0--0--0--0--0--0--0--------0--|
|---0--0--0--0--0--0--0--0--0--0--0--0--0--0--0--0--0--0------0----|
|---1--1--1--1--1--1--1--1--1--1--1--1--1--1--1--1--1--1--0h2------|
|---2--2--2--2--2--2--2--2--2--2--2--2--2--2--2--2--2--2-----------|
|---2--2--2--2--2--2--2--2--2--2--2--2--2--2--2--2--2--2-----------|
|-0----------------------------------------------------------------| 
    ^  v  v  ^  ^  v  v  ^  ^  v  ^  ^  v  v  ^  ^  v  v

    E
Aku pura-pura malu
\
|---0--0--0--0--0--0--0--0--0--0--0--0--0--0--0--0--0--0--0--0--|
|---0--0--0--0--0--0--0--0--0--0--0--0--0--0--0--0--0--0--0--0--|
|---1--1--1--1--1--1--1--1--1--1--1--1--1--1--1--1--1--1--1--1--|
|---2--2--2--2--2--2--2--2--2--2--2--2--2--2--2--2--2--2--2--2--|
|---2--2--2--2--2--2--2--2--2--2--2--2--2--2--2--2--2--2--2--2--|
|-0-------------------------------------------------------------| 
    ^  v  v  ^  ^  v  v  ^  ^  v  ^  ^  v  v  ^  ^  v  v  ^  v

Chours 1:
   A                          Am
Dan kita mulai......

|--0--0--0--0--0--0--0--0--0--0--0--0--0--0--0--0--0--1--|
|--2--2--2--2--2--2--2--2--2--1--1--1--1--1--1--1--1--1--|
|--2--2--2--2--2--2--2--2--2--2--2--2--2--2--2--2--2--2--|
|--2--2--2--2--2--2--2--2--2--2--2--2--2--2--2--2--2--2--|
|--0--0--0--0--0--0--0--0--0--0--0--0--0--0--0--0--0--0--|
|--------------------------------------------------------|
   ^  v  v  ^  v  v  ^  ^  v  ^  v  v  ^  v  v  ^  ^  v

    E
Saling tanya jawab

|---0--0--0--0--0--0--0--0--0--0--0--0--0---0--|
|---0--0--0--0--0--0--0--0--0--0--0--0--0---0--|
|---1--1--1--1--1--1--1--1--1--1--1--1--1h3-3--|
|---2--2--2--2--2--2--2--2--2--2--2--2--2---2--|
|---2--2--2--2--2--2--2--2--2--2--2--2--2---2--|
|----------------------------------------------| 
    ^  v  v  ^  v  v  ^  ^  v  ^  v  v  ^   ^m 

Verse 2:
E
Malam sabtu ku jemput
Rok minimu menyambut
Ku ajak kau ke laut
Lihat pemandangan bagus

Chours 2:
A Am
Namanya laut....
E
Angin pasti kuenceng (wuzzzz)

   A                          Am
Rokmu berayun..... naik turun

|--0--0--0--0--0--0--0--0--0--0---|
|--2--2--2--2--2--2--2--2--2--1---|
|--2--2--2--2--2--2--2--2--2--2---|
|--2--2--2--2--2--2--2--2--2--2---|
|--0--0--0--0--0--0--0--0--0--0---|
|---------------------------------|
   ^  v  v  ^  v  v  ^  ^  v  ^ 

Fill:

    E
|---0--0--0--0--0--0--x--x--x--x--0--0--0--0--0---0--x--x--3---|
|---0--0--0--0--0--0--x--x--x--x--0--0--0--0--0---0--x--x--3---|
|---1--1--1--1--1--1--x--x--x--x--1--1--1--1--1---1--x--x--3---|
|---2--2--2--2--2--2--x--x--x--x--2--2--2--2--2h3-3--x--x------|
|---2--2--2--2--2--2--x--x--x--x--2--2--2--2--2---2--x--x------|
|---0-----------------x--x--x--x--0------------------x--x------| 
    ^  ^  v  v  ^  ^m ^  v  ^  v  ^  ^  v  v  ^   ^m ^  v

    E
|---0--0--0--0--0---0--x--x--x--x--0--0--0--0--0---0--------|
|---0--0--0--0--0---0--x--x--x--x--0--0--0--0--0---0--------|
|---1--1--1--1--1---1--x--x--x--x--1--1--1--1--1---1--------|
|---2--2--2--2--2h3-3--x--x--x--x--2--2--2--2--2h3-3--------|
|---2--2--2--2--2---2--x--x--x--x--2--2--2--2--2---2--------|
|---0------------------x--x--x--x--0-----------------12\----| 
    ^  ^  v  v  ^   ^m ^  v  ^  v  ^  ^  v  v  ^   ^m 

Reff:
  E                          D                          A
Hey salahkah aku yang jadi mau

|-0--0--0--0--0--0--0--0--0--2--2--2--2--2--2--2--2--2--0--0--0--0--0--0--0--0-|
|-0--0--0--0--0--0--0--0--0--3--3--3--3--3--3--3--3--3--2--2--2--2--2--2--2--2-|
|-1--1--1--1--1--1--1--1--1--2--2--2--2--2--2--2--2--2--2--2--2--2--2--2--2--2-|
|-2--2--2--2--2--2--2--2--2--0--0--0--0--2--0--0--0--0--2--2--2--2--2--2--2--2-|
|-2--2--2--2--2--2--2--2--2-----------------------------0--0--0--0--0--0--0--0-|
|-0----------------------------------------------------------------------------| 
  ^  v  v  ^  v  v  ^  ^  v  ^  v  v  ^  v  v  ^  ^  v  ^  v  v  ^  v  v  ^  v

  E
Karena melihat isi dalam rokmu

|-0--0--0--0--0--0--0--0--0--0--|
|-0--0--0--0--0--0--0--0--0--0--|
|-1--1--1--1--1--1--1--1--1--1--|
|-2--2--2--2--2--2--2--2--2--2--|
|-2--2--2--2--2--2--2--2--2--2--|
|-------------------------------| 
  ^  v  v  ^  v  v  ^  ^  v  ^ 

  E                          D                          A 
Hey kenapa kaupun mau saat ku rayu

|-0--0--0--0--0--0--0--0--0--2--2--2--2--2--2--2--2--2--0--0--0--0--0--0--0--0-|
|-0--0--0--0--0--0--0--0--0--3--3--3--3--3--3--3--3--3--2--2--2--2--2--2--2--2-|
|-1--1--1--1--1--1--1--1--1--2--2--2--2--2--2--2--2--2--2--2--2--2--2--2--2--2-|
|-2--2--2--2--2--2--2--2--2--0--0--0--0--2--0--0--0--0--2--2--2--2--2--2--2--2-|
|-2--2--2--2--2--2--2--2--2-----------------------------0--0--0--0--0--0--0--0-|
|-0----------------------------------------------------------------------------| 
  ^  v  v  ^  v  v  ^  ^  v  ^  v  v  ^  v  v  ^  ^  v  ^  v  v  ^  v  v  ^  v

  B
Dan kita langsung berguling bergerak bebas di atas pasir

|-2--2--2--2--2--2--2--2--2--2--2--2--2--2--|
|-3--3--3--3--3--3--3--3--3--3--3--3--3--3--|
|-3--3--3--3--3--3--3--3--3--3--3--3--3--3--|
|-3--3--3--3--3--3--3--3--3--3--3--3--3--3--|
|-2--2--2--2--2--2--2--2--2--2--2--2--2--2--|
|-------------------------------------------| 
  ^  v  v  ^  v  v  ^  ^  v  ^  ^  ^  ^  ^m

Fill 2:
E D A B (2X)

Verse 3:
E
Berapa bulan gak ketemu
Kau tampak jadi gendut
Lagi memilih susu
Di apotik pak Mahmud 

Chours 3:
A Am
Kutanya kabar....
E
Kau malah menangis
   A                          Am 
Sambil berbisik... aku telat 3 bulan

|--0--0--0--0--0--0--0--0--0--0---|
|--2--2--2--2--2--2--2--2--2--1---|
|--2--2--2--2--2--2--2--2--2--2---|
|--2--2--2--2--2--2--2--2--2--2---|
|--0--0--0--0--0--0--0--0--0--0---|
|---------------------------------|
   ^  v  v  ^  v  v  ^  ^  v  ^ 

Back to reff

Ending:
E D A B (2X)

    E
|---0--0--0--0--0---0--x--x--x--x--0--0--0--0--0---0--x--x--3---|
|---0--0--0--0--0---0--x--x--x--x--0--0--0--0--0---0--x--x--3---|
|---1--1--1--1--1---1--x--x--x--x--1--1--1--1--1---1--x--x--3---|
|---2--2--2--2--2h3-3--x--x--x--x--2--2--2--2--2h3-3--x--x------|
|---2--2--2--2--2---2--x--x--x--x--2--2--2--2--2---2--x--x------|
|---0------------------x--x--x--x--0------------------x--x------| 
    ^  ^  v  v  ^   ^m ^  v  ^  v  ^  ^  v  v  ^   ^m ^  v

    E
|---0--0--0--0--0---0--x--x--x--x--0--0--0--0--0---0---|
|---0--0--0--0--0---0--x--x--x--x--0--0--0--0--0---0---|
|---1--1--1--1--1---1--x--x--x--x--1--1--1--1--1---1---|
|---2--2--2--2--2h3-3--x--x--x--x--2--2--2--2--2h3-3---|
|---2--2--2--2--2---2--x--x--x--x--2--2--2--2--2---2---|
|---0-----------------x--x--x--x--0--------------------| 
    ^  ^  v  v  ^   ^m ^ v  ^  v  ^   ^  v  v  ^   ^m 

TAB KEY -
h = hammer-on 
\ = slide down 
^ = down stroke
v = upstroke
m = mute





Comments


Popular Jamrud tabs & chords
Asal British Chords
Pelangi Di Matamu Chords
Selamat Ulang Tahun Chords
Surti Tejo Chords
Telat 3 Bulan Chords
Pelangi Di Matamu Tabs
Asal British Ukulele
Pelangi Di Matamu Ukulele
Surti Tejo Ukulele
Telat 3 Bulan Ukulele


Song lyrics



↑ Back to top | Tablatures and chords are parodies/interpretations of the original songs. You may use it for private study, scholarship, research or language learning purposes only
© 2014 AZChords.com Contact us | Privacy policy | DMCA | Add/correct tabs | Request tabs | Top 50 tabs