» » »

Jamrud, Surti Tejo Bass tabs (ver.1)

Artists:  A B C D E F G H I J K L M N O P Q R S T U V W X Y Z # 

Surti Tejo Bass tabs (ver.1)

Jamrud Tabs
 Rating:
4/5 (4 votes)
Surti Tejo lessons Tabs too difficult? Try these video lessons and learn fast
                ok, my first bass tab!
verse 1
--------------------------------|
--------------------------------|
--3--3-2-0--0--------0----0-2-3-|
--------------3-1--1---3--------|
2x
--------------------------------|
--------------------------------|
--3--3-2-------------0----0-2-3-|
---------4--4-3-1--1---2--------|

-----------------------|
-----------------------|
--3-----3--------------|
-----3------3-3-3-3-3--|

verse 2
--------------------------------|
--------------------------------|
--3--3-2-0--0--------0----0-2-3-|
--------------3-1--1---3--------|
2x
--------------------------------|
--------------------------------|
--3--3-2-------------0----0-2-3-|
---------4--4-3-1--1---2--------|

-----------------------|
-----------------------|
--3-----3--3-3-3-3-3---|
-----3-----------------|

interlude
---------------------|
---------------------|
--------------3-3-3--|
--1--1--1--1---------|
3x
------------------|
--0-0-------------|
------------------|
-------3-3--3-3-3-|

Chorus / Bridge ( i don't know exactly)
--------------------------------|
--------------------------------|
--3--3-2-------------0----0-2-3-|
---------0--0-3-1--1---3--------|
2x
--------------------------|
--------------------------|
--2--2--2--2--------------|
--------------1--1--1--1--|

-----------------------------|
-----------------------------|
--2--2--2--2-----------------|
--------------1--1--1--1--3--|

ending
-----------------|
--3--2--0--------|
-----------3-----|
--------------0--|

song order :
verse1
verse2
interlude
bridge / chorus
verse1
bridge / chorus
ending
            
Submit corrections

comments powered by Disqus
↑ Back to top | Jamrud Bass for Surti Tejo. Lyrics for acoustic guitar and electric guitar. Tablatures and chords are parodies/interpretations of the original songs. You may use it for private study, scholarship, research or language learning purposes only