» » »

Heres Everything Ive Always Meant To Say Correct Tuning Tabs (ver.1)

Artists:  A B C D E F G H I J K L M N O P Q R S T U V W X Y Z # 

Heres Everything Ive Always Meant To Say Correct Tuning Tabs (ver.1)

Jamisonparker
Rating:
0/5 (0 votes)

Hard to play? Try these video lessons and learn fast.
                heres everything i've always meant to say
-jamisonparker

hey, this is the correct tab...i got the tuning from former band members.
since everybody is complaining how much they want it, here it is.  dont argue with me 
its wrong because its right, and if you cant figure out how to tune your guitar to that 
bad.  if you're wondering why its tuned wierd, jamison only uses open tunings because
he's not good at guitar.
so HERE YOU GO! enjoy.

TUNINGS
E--down to C (match where the B string is)
B--up to C (up an octave from the other strings
G--down to C (yes, 3 strings at the same note)
D--down to C
A--up to C
E--up to an F

These are the only chords used for the song.

B--0--0--0--0-|
B--0--0--0--0-|
B--0--0--0--0-|
B--0--0--0--0-|
B--0--0--0--0-|
E--7--4--2--0-|

now for the solo picking stuff throughout the song.

If I don't make your heart...

C------------------------------------|
C-----0-7-0----0-7-0-----0-------0---|
C-(11)-----(11)--------7---7---7---7-|
C--------------------0-------0-------|
C------------------------------------|
F------------------------------------|

I just want you to feel beautiful

C------------------------------------|
C-----0-7-0----0-4-0---0-2-0-----0---|
C-(11)-----(11)------9---------7---7-|
C----------------------------0-------|
C------------------------------------|
F------------------------------------|

For once in your life
-the same as "i just want..." part, but sub 12 for 4.


solo, all played on high e string

12, 11, 7, 4, 0.

rest of solo, plays until end of song.

0, 2, 4, 12, 0, 2, 4, 12, 0, 2, 4, 12, 11, 7, 0, 2, 4, 7.

ENJOY!!!!!
            
Hard to play? Try these video lessons and learn fast. | Correct




comments powered by Disqus
↑ Back to top | Tablatures and chords are parodies/interpretations of the original songs. You may use it for private study, scholarship, research or language learning purposes only