» » »

Emergancy Room Romantics Tabs (ver.1)

Artists:  A B C D E F G H I J K L M N O P Q R S T U V W X Y Z # 

Emergancy Room Romantics Tabs (ver.1)

Jamisonparker
Rating:
4/5 (1 vote)

Hard to play? Try these video lessons and learn fast.
                -----------------------------------------------------------------------------
-----------------------------------------------------------------------------


::notes::

- 1st tab ever so go easy ^_^
- from their new album sleepwalker
- Most of the song tabbed however - 
  sounds like there is a another guitar but I cannot work it out 
  solo may not be 100% precise depending on how it is played
- during verse 2 there is an additional bit at the end that is basically the 
  verse pattern but lightly strummed.
- drop d tuning - thats all! =)

::Song Plan::

- Intro   - x2
- Verse 1 - x2
- Chorus  - x2
- verse 2 - x2
- chorus  - x2
- solo    -
- chorus  - x2


::Intro and Chorus::

e|------------------------------------------------------------------|
b|------------------------------------------------------------------|
g|------------------------------------------------------------------|
d|--5-5-5-3--3-3-3-3-3-3-3-3-3-3-3--5-5-5-3--3-3-3-3-3-3-3-3-3-3-3--|
a|--3-3-3-3--3-3-3-3-3-3-3-3-3-3-3--3-3-3-3--3-3-3-3-3-3-3-3-3-3-3--|
d|--3-3-3-3--3-3-3-3-3-3-3-3-3-3-3--3-3-3-3--3-3-3-3-3-3-3-3-3-3-3--|

e|-----------------------------------------------------------|
b|-----------------------------------------------------------|
g|-----------------------------------------------------------|
d|--5-5-5-10--10-10-10-10-10-10-10-10-10-10-10--10-10-10--9--|
a|--3-3-3-10--10-10-10-10-10-10-10-10-10-10-10--10-10-10-10--|
d|--3-3-3-10--10-10-10-10-10-10-10-10-10-10-10--10-10-10--9--|

e|------------------------------------|
b|------------------------------------|
g|------------------------------------|
d|---9--9--9--9--9--9--9--9--9--9--9--|
a|--10-10-10-10-10-10-10-10-10-10-10--|
d|---9--9--9--9--9--9--9--9--9--9--9--|

then:

e|---------------|
b|---------------|
g|---------------|
d|---9--9--9-10--|
a|--10-10-10-10--|
d|---9--9--9-10--|

::Verse::

e|-------------------------|
b|-------------------------|
g|-------------------------|
d|--5-----5-----10------9--|
a|--3-----3-----10-----10--|
d|--3-----3-----10------9--|

::Solo:: (slide with each change of fret)

e|------------------------------------------------------------------|
b|------------------------------------------------------------------|
g|--7-7-7-7-7-7-7-7-5-5-5-10-9-9-9-9-9-9-10-10-10--7-7-7-7-7-7-7-7--|
d|------------------------------------------------------------------|
a|------------------------------------------------------------------|
d|------------------------------------------------------------------|

(solo continued)

e|------------------------------------------------------------------|
b|------------------------------------------------------------------|
g|--4-4-4-4-4-4-4--4-4-4-5-5-5-5--7-7-9-9-10-10-10-9-9-9-9-9-9-9-10-|
d|------------------------------------------------------------------|
a|------------------------------------------------------------------|
d|------------------------------------------------------------------|

e|------------------------------------------------------------------|
b|------------------------------------------------------------------|
g|--7-7-7-7-7-7-7-7-7-7-4-4-4-4-4-4-4--4-4-4-5-5-5-7-7-9-9-10-10-10-|
d|------------------------------------------------------------------|
a|------------------------------------------------------------------|
d|------------------------------------------------------------------|

e|--------------------------------------------|
b|--------------------------------------------|
g|--9-9-9-9-9-9-9-10-9--10-9--10--12--14--12--|
d|--------------------------------------------|
a|--------------------------------------------|
d|--------------------------------------------|

::end::

e|--------------|
b|--------------|
g|--------------|
d|---9--9--9-5--|
a|--10-10-10-3--|
d|---9--9--9-3--|
            
Hard to play? Try these video lessons and learn fast. | Correct




comments powered by Disqus
↑ Back to top | Tablatures and chords are parodies/interpretations of the original songs. You may use it for private study, scholarship, research or language learning purposes only