» » »

Jamisonparker, Dear Everybody Bass tabs (ver.1)

Artists:  A B C D E F G H I J K L M N O P Q R S T U V W X Y Z # 

Dear Everybody Bass tabs (ver.1)

Jamisonparker Tabs
 Rating:
4/5 (4 votes)
Dear Everybody lessons Tabs too difficult? Try these video lessons and learn fast
                
Tuning: Standard

Intro up until guitar enters

The rhythm is pretty strange. and know that it is fret 13, not 1-then-3.  
G|---------------------------------------------------------------]
D|---------------------------------------------------------------]
A|---13-13-131313-13-1313-13131313-13-13-1313-13-1313-13131313---]
E|---------------------------------------------------------------]

Intro: after guitar entrance
G|---------------------------------------------------------------]
D|---------------------------------------------------------------]
A|-13-13-131313-13-1313-13131313-10101010-6666666----------------]
E|---------------------------------------------------------------] 3X
Last time (fourth time) play this:
G|---------------------------------------------------------------]
D|---------------------------------------------------------------]
A|-13-13-131313-13-1313-13131313-10-6----------------------------]
E|---------------------------------------------------------------] 
Jamison starts singing:

"I spend my nights dead facedown on my floor" ...."really working anymore"
Please note that the 6 is syncopated. It comes on the downbeat. )

G|---------------------------------------------------------------]
D|---------------------------------------------------------------]
A|-13---10-6-13---10-6-13---10-6-13---10-6-----------------------]
E|---------------------------------------------------------------]

"And i'm scratching down every blurry scene" 
G|---------------------------------------------------------------]
D|---------------------------------------------------------------]
A|-13---10-6-13---10-6-13---10-6-13---10-6-----------------------]
E|---------------------------------------------------------------]

Chorus: "Dear everybody or whoever's listening..."
G|---------------------------------------------------------------]
D|---------------------------------------------------------------]
A|-1313131313131313-88888888-66666666-88886666-------------------]
E|---------------------------------------------------------------]

"This is all overrated..."           
G|---------------------------------------------------------------]
D|---------------------------------------------------------------]
A|-1313131313131313-88888888-66666666-88886x---------------------]
E|---------------------------------------------------------------]

Filler bit in between Chrus and Verse 2

G|---------------------------------------------------------------]
D|---------------------------------------------------------------]
A|-13-13-131313-13-1313-13131313-10101010-6666666----------------]
E|---------------------------------------------------------------]

G|---------------------------------------------------------------]
D|---------------------------------------------------------------]
A|-13-13-131313-13-1313-13131313-10-6----------------------------]
E|---------------------------------------------------------------]

Verse 2 
"I haven't seen the sun in about a week" 

G|---------------------------------------------------------------]
D|---------------------------------------------------------------]
A|-13---10-6-13---10-6-13---10-6-13---10-6-----------------------]
E|---------------------------------------------------------------]

"i finally know the taste of love"
G|---------------------------------------------------------------]
D|---------------------------------------------------------------]
A|-13---10-6-13---10-6-13---10-6-13---10-6-----------------------]
E|---------------------------------------------------------------]

Verse 3 (immediatly following verse 2)
"and so i guess it's safe to say...."  
G|---------------------------------------------------------------]
D|---------------------------------------------------------------]
A|-13-13-1313-13-1313-13131313-10-6------------------------------]
E|---------------------------------------------------------------]
                                  "...i rarely used them anyway"
G|---------------------------------------------------------------]
D|---------------------------------------------------------------]
A|-13---10-6-13---10-6-13---10-6-13---10-6-----------------------]
E|---------------------------------------------------------------]

Chorus: "Dear everybody or whoever's listening..."
G|---------------------------------------------------------------]
D|---------------------------------------------------------------]
A|-1313131313131313-88888888-66666666-88886666-------------------]
E|---------------------------------------------------------------]
"this is all overrated....."
G|---------------------------------------------------------------]
D|---------------------------------------------------------------]
A|-1313131313131313-88888888-66666666-88886666-------------------]
E|---------------------------------------------------------------]

Bridge:

G|---------------------------------------------------------------]
D|---------------------------------------------------------------]
A|---------------------------------------------------------------]
E|-13---10-6-13---10-6-13---10-6-13---10-6-----------------------]

very abruptly!: in between a capella Jaimy-poo (i mean Jamison.....)
G|---------------------------------------------------------------]
D|---------------------------------------------------------------]
A|---------------------------------------------------------------]
E|-1313---88---66---88866----------------------------------------]

Then it goes back to Chorus:  
G|---------------------------------------------------------------]
D|---------------------------------------------------------------]
A|-1313131313131313-88888888-66666666-88886666-------------------]
E|---------------------------------------------------------------]
"this is all overrated....."
G|---------------------------------------------------------------]
D|---------------------------------------------------------------]
A|-1313131313131313-88888888-66666666-88886666-------------------]
E|---------------------------------------------------------------]
Ending:
"(Dear everybody)"                  "so-called life"
G|---------------------------------------------------------------]
D|---------------------------------------------------------------]
A|-1313131313131313-88888888-66666666-88886666-13----------------]
E|---------------------------------------------------------------]
            
Submit corrections

comments powered by Disqus
↑ Back to top | Jamisonparker Bass for Dear Everybody. Lyrics for acoustic guitar and electric guitar. Tablatures and chords are parodies/interpretations of the original songs. You may use it for private study, scholarship, research or language learning purposes only