» » »

You Give Me Something Bass tabs (ver.2)

Artists:  A B C D E F G H I J K L M N O P Q R S T U V W X Y Z # 

You Give Me Something Bass tabs (ver.2)

Jamiroquai
Rating:
0/5 (0 votes)

Hard to play? Try these video lessons and learn fast.
                Verse
|-----------(7)----|-----------------|-------------------|-----------------|
|------------------|----------(9)----|-7----------(5)----|-----------(9)---|
|-3-4-5-5----5--5--|-----------------|--0-0--------------|-----------------|
|------------------|-5-6-7-7---7--7--|------3--3---3--3--|-5-6-7--7---7--7-|

 Break (@1:50)
|-------------|
|-9-9--7------|
|---------9-9-|
|-------------|
            
Hard to play? Try these video lessons and learn fast. | Correct




comments powered by Disqus
↑ Back to top | Tablatures and chords are parodies/interpretations of the original songs. You may use it for private study, scholarship, research or language learning purposes only