» » »

You Give Me Something Bass tabs (ver.1)

Artists:  A B C D E F G H I J K L M N O P Q R S T U V W X Y Z # 

You Give Me Something Bass tabs (ver.1)

Jamiroquai
Rating:
0/5 (0 votes)

Hard to play? Try these video lessons and learn fast.
                 by Jamiroquai

Verse

G -------7---------------------------------------
D ------------------------9----------------------
A --4-55----05-----------------------------------
E 7-------------5677--707----05-33--303--5677-707

Chorus

G -------7-----------------------------------------
D --------------------9----9-----------------------
A --4-55----05-------------------------------------
E 7-------------5677---707-----05-33--303--5677-707

There, not the hardest of Jamiroquai songs but still funky as hell
            
Hard to play? Try these video lessons and learn fast. | Correct




comments powered by Disqus
↑ Back to top | Tablatures and chords are parodies/interpretations of the original songs. You may use it for private study, scholarship, research or language learning purposes only