» » »

You Are My Love Bass tabs (ver.1)

Artists:  A B C D E F G H I J K L M N O P Q R S T U V W X Y Z # 

You Are My Love Bass tabs (ver.1)

Jamiroquai
Rating:
0/5 (0 votes)

Tabs too difficult? Try these video lessons and learn fast.
                yo yo ! here some more iroquai tunes ! oocha, this one took me some time 
but i got there. theres heaps of verations in between each riff, which 
is a stress to tabb. so i just tabbed the obivious parts. sorry if i miss
anything out. enjoy :)

Normal tuning
G
D
A
E

Main Riff
|--------------------------8-----------------|
|----------------------------8--------8-8/10-|
|-3-------1--5--------3--6-----6-8-10--------| x4
|---1-2-3-------3-4-5------------------------|

This verse is really tricky with the timing. And theres heaps of 
different fills which, sorry i couldnt tab out. but this still
does the job, am sure you can jam out to the fills 

Verse
|-------------------------------------------------------|
|---5/6-------------------------------------------------|
|-------4-5-6-7---------2-3-4--5----------2-3-4-5-------| x3
|-1-------------4-5-6-7-----------2-3-4-5---------2-3-4-|

Chorus
|-------------------------|
|---------------------3-5-|
|--------3-1----3-5-6-----| x8
|-1--3-4------------------|

Interlude
|---------------------|--------|
|---------------------|--------|
|---------------------|--5-----|
|-//--\\--//--\\--//--|-----3--|

Main Riff
|--------------------------8-----------------|
|----------------------------8--------8-8/10-|
|-3-------1--5--------3--6-----6-8-10--------| x2
|---1-2-3-------3-4-5------------------------|

Verse
|-------------------------------------------------------|
|---5/6-------------------------------------------------|
|-------4-5-6-7---------2-3-4--5----------2-3-4-5-------| x3
|-1-------------4-5-6-7-----------2-3-4-5---------2-3-4-|

with the outro theres some fills which are just slides. and slapping
in the key of C. so enjoy that :)

Chorus/outro
|-------------------------|
|---------------------3-5-|
|--------3-1----3-5-6-----| x till end
|-1--3-4------------------|    

And thats it. sorry if i left anything out. you can just jam out to the 
fills and what not. anyway enjoy :)

A.J
            
Tabs too difficult? Try these video lessons and learn fast.


comments powered by Disqus
↑ Back to top | Tablatures and chords are parodies/interpretations of the original songs. You may use it for private study, scholarship, research or language learning purposes only