>
 >
Travelling Without Moving

Travelling Without Moving Bass Tabs

Jamiroquai - Travelling Without Moving chords, tabs, tablatures, lyrics

Guitar lessons | Add/correct | Request | Top 50 tabs Artists:  A B C D E F G H I J K L M N O P Q R S T U V W X Y Z 0-9

Travelling Without Moving Bass Tabs – Jamiroquai

CD, Sheet music, Poster

Do you like Travelling Without Moving? Share with your friends now
Bass TabsBass Tabs v2Bass Tabs v3Bass Tabs v4
Verse
|----------------------------|--------------------|
|----------------------------|--------------------|
|----------------------------|------------------0-|
|-0---0-0---0-0---0-0---0-0--|-0-0-3-3-3-3-5--7---|

|---------------------|-----------------------|-----------------------|------------------|
|---------------------|--------------5--------|-----------------------|--------------5---|
|-5h7-7-7--7-5h7-7-7--|-7-5h7-7-7--7---7-7-7--|-7-5h7-7-7--7-5h7-7-7--|-7-5h7-7-7--7---7\|
|---------------------|-----------------------|-----------------------|------------------|

|----------------------------|--------------------|
|----------------------------|--------------------|
|----------------------------|------------------0-|
|-0---0-0---0-0---0-0---0-0--|-0-0-3-3-3-3-5--7---|

|---------------------|-----------------------|-----------------------|------------------|
|------------5--------|--------------5--------|--------------5--------|--------------5---|
|-5h7-7-7--7---7-7-7--|-7-5h7-7-7--7---7-7-7--|-7-5h7-7-7--7---7-7-7--|-7-5h7-7-7--7---7\|
|---------------------|-----------------------|-----------------------|------------------|

|-------------------------------------------------|
|-------------------------------------------------|
|-----------------------------------------------0-|
|-0---0-0---0-0---0-0---0-0----0-0-3-3-3-3-5--7---|

|---------------------|-----------------------|
|------------5--------|--------------5--------|
|-5h7-7-7--7---7-7-7--|-7-5h7-7-7--7---7\-----|
|---------------------|-----------------------|

|---------------------|-----------------------|-----------------------|------------------|
|------------5--------|--------------5--------|--------------5--------|--------------5---|
|-5h7-7-7--7---7-7-7--|-7-5h7-7-7--7---7-7-7--|-7-5h7-7-7--7---7-7-7--|-7-5h7-7-7--7---7\|
|---------------------|-----------------------|-----------------------|------------------|

|-------------------------------------------------|
|-------------------------------------------------|
|-----------------------------------------------0-|
|-0---0-0---0-0---0-0---0-0----0-0-3-3-3-3-5--7---|

|---------------------|-----------------------|
|------------5--------|--------------5--------|
|-5h7-7-7--7---7-7-7--|-7-5h7-7-7--7---7\-----|
|---------------------|-----------------------|

 Chorus
|-------6----|---6---6----|------------|---11---11---9---6|
|-----6------|------------|---4---4----|------------------|
|-4-7--------|-4---4------|------------|-9----9----7---4--|
|------------|------------|-2---2------|------------------|
                            
|-------8----|------------|---6---6----|---7--------------|
|-----8------|---6---6----|------------|-------7---4---7--|
|-6-9--------|------------|-4---4------|-5----------------|
|------------|-4---4------|------------|-----5---2---5----|
 
 Transition
|-------------------------|
|-------------------------|
|-4---3---2---1---0-------|
|-------------------4-3-2-|

 Speadfreak section
|----------------------|--------------------------|
|-------------5--------|---------5-5-5-5-5-7-9-(5)|
|-5h7--7-7--7---7-7-7--|-5h7-7--------------------|
|----------------------|--------------------------|

|----------------------|--------------------7h9---|
|-------------5--------|--------------------------|
|-5h7--7-7--7---7-7-7--|-7p5-7p5------------------|
|----------------------|---------7-5-3-0----------|

 Then the chorus until the end..





Comments


Popular Jamiroquai tabs & chords
Black Capricorn Day 1 Bass Tabs
Black Crow Bass Tabs
Kid Bass Tabs
Love Foolosophy 3 Bass Tabs
Mr Moon Bass Tabs
Space Cowboy Bass Tabs
Starchild Bass Tabs
Whatever It Is Bass Tabs
Black Capricorn Day Tabs
Deeper Underground 3 Tabs


Song lyrics



↑ Back to top | Tablatures and chords are parodies/interpretations of the original songs. You may use it for private study, scholarship, research or language learning purposes only
© 2014 AZChords.com Contact us | Privacy policy | DMCA | Add/correct tabs | Request tabs | Top 50 tabs