» » »

Supersonic Bass tabs (ver.1)

Artists:  A B C D E F G H I J K L M N O P Q R S T U V W X Y Z # 

Supersonic Bass tabs (ver.1)

Jamiroquai
Rating:
0/5 (0 votes)

Hard to play? Try these video lessons and learn fast.
                Verse (repeat many times)
|-----------------|-----------------|-----------------|-----------------|
|---------2---2---|-----------------|----------2---2--|-----------------|
|-2-2-4-4---------|-----------------2-2-4-4-4---------|-----------------|
|-----------------|-4-4-4-4-4-4-4-4-|-----------------|-4-4-4-4-4-4-4-4-|


 Break (repeat many times)
|-----------------|-----------------|-----------------|-----------------|
|-----------------|-----------------|-----------------|-----------------|
|-----------4-----|----4-------4----|----4-------4----|----4-------4----|
|-4--44--44-------|-44------44------|-44------44------|-44------44------|
            
Hard to play? Try these video lessons and learn fast. | Correct




comments powered by Disqus
↑ Back to top | Tablatures and chords are parodies/interpretations of the original songs. You may use it for private study, scholarship, research or language learning purposes only