» » »

Stop Don Panic Bass tabs (ver.1)

Artists:  A B C D E F G H I J K L M N O P Q R S T U V W X Y Z # 

Stop Don Panic Bass tabs (ver.1)

Jamiroquai
Rating:
0/5 (0 votes)

Hard to play? Try these video lessons and learn fast.
                Verse
|---------------------|
|---------------------|
|-------------11------|
|-11---11----------11-|

 Chorus
|----------------|-------------|---------------|
|----------------|-------------|------11----12-|
|----------------|-9-9-10-10---|-10------------|
|-12-0---0-0-12--|-------------|----9----10----|

|----------------|-------------|----------------|
|----------------|-------------|------12--12(12)|
|----------------|-10-10-12-12-|-12-------------|
|-12-0---0-0-12--|-------------|----10--10------|

 Bridge
|--------------7----------|---------------7---6---7-|
|------------------5---7--|-------------------------|
|-7-7--7-7--/5------------|--7-7--7-7--/5---4---5---|
|----------------3---5----|-------------------------|

 Outro
|-------------------|
|-------------------|
|-------------------|
|-14-14-12-0---0--0-|
            
Hard to play? Try these video lessons and learn fast. | Correct




comments powered by Disqus
↑ Back to top | Tablatures and chords are parodies/interpretations of the original songs. You may use it for private study, scholarship, research or language learning purposes only