» » »

Jamiroquai, Planet Home Bass tabs (ver.1)

Artists:  A B C D E F G H I J K L M N O P Q R S T U V W X Y Z # 

Planet Home Bass tabs (ver.1)

Jamiroquai Tabs
 Rating:
4/5 (4 votes)
Planet Home lessons Tabs too difficult? Try these video lessons and learn fast
                Verse
G-|--------------------------|--------------------------|
D-|--------------------------|--------------------------|
A-|-4--------4---------------|-4--2-----4---------------|
E-|----3--2-----0-0---1-1----|-------2-----0-0---1-1----|
  
                                            A-|------4--| <- going into
                                            E-|--1-1----|    chorus
 Chorus
G-|------------------|----|------------------|----|------------(6)---|----|
D-|------------------|-¤/-|------------------|-¤/-|------------------|-¤/-|
A-|-6-6--6--6---4----|-/¤-|-------------4----|-/¤-|-4-4--4--4---4----|-/¤-|
E-|------------------|----|-6-6--6--6--------|----|------------------|----|

 (Break, just before last chorus)
G-|--------------------------|--------------------------|
D-|--------------------------|--------------------------|
A-|-4------------------------|-4--2------------------4--|
E-|--------------------------|--------------------------|
            
Submit corrections

comments powered by Disqus
↑ Back to top | Jamiroquai Bass for Planet Home. Lyrics for acoustic guitar and electric guitar. Tablatures and chords are parodies/interpretations of the original songs. You may use it for private study, scholarship, research or language learning purposes only