>
 >
Planet Home

Planet Home Bass Tabs

Jamiroquai - Planet Home chords, tabs, tablatures, lyrics

Guitar lessons | Add/correct | Request | Top 50 tabs Artists:  A B C D E F G H I J K L M N O P Q R S T U V W X Y Z 0-9

Planet Home Bass Tabs – Jamiroquai

CD, Sheet music, Poster

Do you like Planet Home? Share with your friends now
Bass Tabs
Verse
G-|--------------------------|--------------------------|
D-|--------------------------|--------------------------|
A-|-4--------4---------------|-4--2-----4---------------|
E-|----3--2-----0-0---1-1----|-------2-----0-0---1-1----|
  
                                            A-|------4--| <- going into
                                            E-|--1-1----|    chorus
 Chorus
G-|------------------|----|------------------|----|------------(6)---|----|
D-|------------------|-/-|------------------|-/-|------------------|-/-|
A-|-6-6--6--6---4----|-/-|-------------4----|-/-|-4-4--4--4---4----|-/-|
E-|------------------|----|-6-6--6--6--------|----|------------------|----|

 (Break, just before last chorus)
G-|--------------------------|--------------------------|
D-|--------------------------|--------------------------|
A-|-4------------------------|-4--2------------------4--|
E-|--------------------------|--------------------------|





Comments


Popular Jamiroquai tabs & chords
Butterfly Bass Tabs
Falling Bass Tabs
Morning Glory 2 Bass Tabs
Mr Moon 2 Bass Tabs
Runaway 2 Bass Tabs
Scam Bass Tabs
Blue Skies Chords
Virtual Insanity (Intro) Tabs
Love Foolosophy Ukulele
Seven Days In Sunny June Ukulele


Song lyrics



↑ Back to top | Tablatures and chords are parodies/interpretations of the original songs. You may use it for private study, scholarship, research or language learning purposes only
© 2014 AZChords.com Contact us | Privacy policy | DMCA | Add/correct tabs | Request tabs | Top 50 tabs