>
 >
Music Of The Mind

Music Of The Mind Bass Tabs

Jamiroquai - Music Of The Mind chords, tabs, tablatures, lyrics

Guitar lessons | Add/correct | Request | Top 50 tabs Artists:  A B C D E F G H I J K L M N O P Q R S T U V W X Y Z 0-9

Music Of The Mind Bass Tabs – Jamiroquai

CD, Sheet music, Poster

Do you like Music Of The Mind? Share with your friends now
Bass TabsBass Tabs v2
|---------4---------------|--------2h3p2------------|---------7---------------|
|-----2------2---------2--|-------------0-----------|-----5------5---------5-4|
|-0---------------0--0---5|-----5----------------5--|-3------------------3----|
|---------------0---------|-3-------------1-3--3---3|---------------6-8-------|

|---------0---------------|---------5---------------|--------2h3p2------------|
|-------------------------|-----2------2---------2--|-------------0-----------|
|-----3------3---------3--|-0---------------0--0---5|-----5----------------5--|
|-1-------------0-1--1---0|---------------0---------|-3-------------1-3--3---3|

|--------7h8p7------------|---------0----0h1p0------|---------5---------------|
|-----5-------5-----5-----|--------------------1h3p1|-----2------2---------2--|
|-3-----------------------|-----3------3------------|-0---------------0--0---5|
|---------------6-8----8-0|-1-----------------------|---------------0---------|

|--------2h3p2------------|--------7h8p7------------|---------0----0h1p0------|
|-------------0-----------|-----5-------5-----5-----|--------------------1h3p1|
|-----5----------------5--|-3-----------------------|-----3------3------------|
|-3-------------1-3--3---3|---------------6-8----8-0|-1-----------------------|

|--------4h5p4------------|--------2h3p2------------|--------8p7--------------|
|-----2-------2--------2--|-------------0-----0-----|-----5------5-------5----|
|-0---------------0--0---5|-----5------------------5|-3-----------------------|
|---------------0---------|-3-------------1-3----3--|---------------6-8-----0-|
 
|---------0----0h1p0------|---------7--4------4-----|---------3--2-----2h3p2--|
|--------------------1h3p1|-----2-------------------|----------------0--------|
|-----3------3------------|-0-------------0-7----7--|-----5--------0---------0|
|-1-----------------------|-------------------------|-3-----------------------|

|--------8p7--------------|---------0----0h1p0------|---------4---------------|
|-----5------5--6p5-------|--------------------1h3p1|-----2------2---------2--|
|-3-----------------------|-----3------3------------|-0---------------0--0---5|
|-------------------6h8p6-|-1-----------------------|---------------0---------|

|--------3p2--------------|---------8--7------------|---------0---------------|
|------------0------0-----|-----5--------5-----5----|-------------------------|
|-----5-------------------|-3-----------------------|-----3------3------3-----|
|-3-------------1-3----3--|------------------8---0--|-1-------------0-1----1--|

|---------5---------------|--------2h3p2------------|--------8p7--------------|
|-----2------2---------2--|--------------0----0-----|-----5------5---6p5------|
|-0---------------0--0---5|-----5-------------------|-3------------0-----0----|
|---------------0---------|-3---------------3----3--|----------------------8p6|

|---------0----0h1p0------|---------7--4------4-----|--------3p2--------------|
|--------------------1h3p1|-----2-------------------|------------0------0-----|
|-----3------3------------|-0-------------0-7----7--|-----5-------------------|
|-1-----------------------|-------------------------|-3-------------1-3----3--|
                           transition to fast
|--------7h8p7------------|-----0-0---------0-0-----|
|-----5---------5----5----|-------------------------|
|-3-----------------------|---3-----3-----3-----3---|
|------------------8---0--|-1---------0-1-----------|

Fast part (starts @ 2:17)

|--------4-4-----|----|-------2-2-----|----|---0-0-7-7-0-0-|----|-------0-0-----|----|
|----2-2-----2-2-|-/-|---0-0-----0-0-|-/-|---------------|-/-|---------------|-/-|
|-0--------------|-/-|---------------|-/-|-3-------------|-/-|---3-3-----3-3-|-/-|
|----------------|----|-3-------------|----|---------------|----|-1-------------|----|

|--------5-5-5---|----|-------3-3-3---|----|---0-0-8-8-8-0-|----|-------1-1-1---|-------1-1------|
|----2-2-------2-|-/-|---0-0-------0-|-/-|---------------|-/-|---------------|----------------|
|-0--------------|-/-|---------------|-/-|-3-------------|-/-|---3-3-------3-|----3---------3-|
|----------------|----|-3-------------|----|---------------|----|-1-------------|-1----------1---|

|----------5(2)-----|--------5-5-2------|----------3--------|--------3-3--------|
|-----2-----------2-|-----2-----------2-|------------5------|------------5------|
|-0-------------0---|-0-0-----------0---|-----5-----------5-|-----5-----------5-|
|-------------------|-------------------|-3-------------3---|-3-3-----------3---|

|----------8-5------|--------8-8-5------|----------1--------|--------1-1--------|
|-----5-----------5-|-----5-----------5-|------------3------|------------3------|
|-3-------------3---|-3-3-----------3---|-----3-----------3-|-----3-----------3-|
|-------------------|-------------------|-1-------------1---|-1-1-----------1---|

|----------4--------|----------5-2------|----------3--------|--------3-3--------|
|-----2------2----2-|-----2-----------2-|------------5------|------------5------|
|-0-0-----------0---|-0-0-----------0---|-----5-----------5-|-----5-----------5-|
|-------------------|-------------------|-3-------------3---|-3-3-----------3---|

|----------8-5------|--------8-8--------|----------1--------|--------1-1--------|
|-----5-----------5-|-----5------5-5--5-|------------3------|------------3------|
|-3-----------------|-3-3---------------|-----3-----------3-|-----3-----------3-|
|---------------8---|---------------8---|-1-------------1---|-1-1-----------1---|

|----------5--------|--------5-5--------|----------3--------|--------3-3--------|
|-----2------2----2-|-----2------2----2-|------------0------|------------0------|
|-0-------------0---|-0-0-----------0---|-----5-----------5-|-----5-----------5-|
|-------------------|-------------------|-3-------------3---|-3-3-----------3---|

|--------8-8--------|--------8-8--------|--------1-1--------|----|
|-----5------5-5--5-|-----5------5----5-|-------------------|-/-|
|-3-----------------|-3-3---------------|-----3------3----3-|-/-|
|---------------8---|---------------8---|-1-------------1---|----|
 (break line @3:30)
|---------4---------|---------2--0------|--------/7--0------|---------0---------|
|-----2--------2----|-------------------|-----5----------5--|--------------/10\-|
|-0--2------------0-|-----5----------5--|-3-----------1/3--3|-----3------3------|
|-------------------|-3-----------1/3--3|-------------------|-1-----------------|

|------2-4-5--4p2-4p2|----|------0-2-3--2p0-2p0-|----|------0-2-3--2p0-2p0|----|--------------------|----|
|---2----------------|-/-|---------------------|-/-|--------------------|-/-|------3-5-6--5p3-5p3|-/-|
|-0------------------|-/-|---------------------|-/-|-3-3----------------|-/-|--------------------|-/-|
|--------------------|----|-3-3-----------------|----|--------------------|----|-1-1----------------|----|

|----------5--------|--------5-5--------|----------3--------|--------3-3--------| --
|-----2-----------2-|-----2-----------2-|-------------------|-------------------|  |
|-0-------------0---|-0-0-----------0---|-----5-----------5-|-----5-----------5-|  |  play twice, but
|-------------------|-------------------|-3-------------3---|-3-3-----------3---|  |  watch for timing
                                                                                   }- in the 1st bar 
|----------8-0------|--------8-8-0------|----------1--------|--------1-1--------|  |  1st time, as it's 
|-----5-----------5-|-----5-----------5-|-------------------|-------------------|  |  a bit different!
|-3-------------3---|-3-3-----------3---|-----3-----------3-|-----3-----------3-|  |
|-------------------|-------------------|-1-------------1---|-1-1-----------1---| --

|-------4-4-----|-------5-5-----|-------2-2-----|-------3-3------|---0-0-7-7-0---|--0-0-8-8-8-0---|
|---2-2-----2---|---2-2-----2---|---0-0---------|----------------|---------------|----------------|
|-0-------------|-0-------------|-----------5---|---5-5------5---|-3-------------|-3--------------|
|---------------|---------------|-3-------------|-3--------------|---------------|----------------|

|-------1-1-----|-------1-1-1---|-------5-5-5---|----|-------3-3-3-----|-------2-2-------|
|---------------|---------------|---2-2-------2-|-/-|-----------------|-----------------|
|---3-3-----3---|---3-3-------3-|-0-------------|-/-|---5-5-------5---|---5-----------5-|
|-1-------------|-1-------------|---------------|----|-3---------------|-3-----------3---|
                                         transition to outro
|----------8-0------|--------8-8-0------|-----0-0---------0-0-----|
|-----5-----------5-|-----5-----------5-|-------------------------|
|-3-------------3---|-3-3-----------3---|---3-----3-----3-----3---|
|-------------------|-------------------|-1---------1-1---------1-|

Outro part (starts @ 4:55)

   Play variations of outro as follows: 0012 131313 140414 00233 (last two already almost faded-out)

 Main outro riff (0)
|------------------|-------0--1--0----|
|------------------|-1--3-----------3-|
|-0--2--3--5--3--2-|------------------|
|------------------|------------------|

 variation 1 (1)                               variation 3 (3)
|------------------|--------0--111-0----|     |------------------|---------000-1--3--5-|
|------------------|-111-3------------3-|     |------------------|-111-333-------------|
|-0--2--3--5--3--2-|--------------------|     |-0--2--3--5--3--2-|---------------------|
|------------------|--------------------|     |------------------|---------------------|
 variation 2 (2)                               variation 4 (4)
|------------------|---------000-1--0---|     |------------------|--------0--1--0----|
|------------------|-111-333-----------3|     |------------------|-111-3-----------3-|
|-0--2--3--5--3--2-|--------------------|     |-0--2--3--5--3--2-|-------------------|
|------------------|--------------------|     |------------------|-------------------|





Comments


Popular Jamiroquai tabs & chords
(Don't) Give Hate A Chance Bass Tabs
Capricorn Day Bass Tabs
Deeper Underground 2 Bass Tabs
Journey To Arnhemland Bass Tabs
Love Foolosophy 3 Bass Tabs
Starshild Bass Tabs
Virtual Insanity Bass Tabs
Where Do We Go From Here? Bass Tabs
Picture Of My Life Chords
Black Crow Tabs


Song lyrics



↑ Back to top | Tablatures and chords are parodies/interpretations of the original songs. You may use it for private study, scholarship, research or language learning purposes only
© 2014 AZChords.com Contact us | Privacy policy | DMCA | Add/correct tabs | Request tabs | Top 50 tabs