» » »

Jamiroquai, Mr Boogie Bass tabs (ver.1)

Artists:  A B C D E F G H I J K L M N O P Q R S T U V W X Y Z # 

Mr Boogie Bass tabs (ver.1)

Jamiroquai Tabs
 Rating:
4/5 (4 votes)
Mr Boogie lessons Tabs too difficult? Try these video lessons and learn fast
                Yo! here's some old school iroquai! i tabbed out the Mr. Boogie (Tokyo

its a nice,quick easy tab.. play it with funk and walah you got the groove
boi!

normal tuning
G
D
A
E

riff 1          repeat    End riff
|---------------------|  |------------|
|------11-------------|  |------------|
|----------6-7--------|  |------------|
|--x-9-----------6-7--|  |-7//9\\7//9-|

riff 2 (with auto wah)           repeat
|-19-19----19-19----19-19----19-19----|
|-19-19----19-19----19-19----19-19----|
|-------------------------------------|
|-------19-------19-------19-------0--|

then repeat those riffs and different veriations

enjoy :)

A.J
            
Submit corrections

comments powered by Disqus
↑ Back to top | Jamiroquai Bass for Mr Boogie. Lyrics for acoustic guitar and electric guitar. Tablatures and chords are parodies/interpretations of the original songs. You may use it for private study, scholarship, research or language learning purposes only