>
 >
Love Foolosphy

Love Foolosphy Bass Tabs

Jamiroquai - Love Foolosphy chords, tabs, tablatures, lyrics

Guitar lessons | Add/correct | Request | Top 50 tabs Artists:  A B C D E F G H I J K L M N O P Q R S T U V W X Y Z 0-9

Love Foolosphy Bass Tabs – Jamiroquai

CD, Sheet music, Poster

Do you like Love Foolosphy? Share with your friends now
Bass Tabs
Verse 1
|-----4---4------|----------------|---------5------|--4-------------|
|----------------|--2-----------2-|----------------|----2-4-------0-|
|-2---------2----|------------2---|-3---3-----3---2|--------2-0-2---|
|---------------0|----0-0-0-0-----|----------------|----------------|

|-----4---4------|----------------|-----------5----|--44------------|
|-------(4)-4----|--2-----------2-|----------------|------2-000-2---|
|-2--------------|------------2---|-3---3---3-----2|--------------0-|
|---------------0|----0-0-0-0-----|----------------|----------------|

|-----4---4------|----------------|-----5---5------|--4-------------|
|-------(4)-4----|--22----------2-|----------------|----2-4-000-222-|
|-2--------------|--------222-2---|-3---------3---2|----------------|
|---------------0|------0---------|----------------|----------------|

|-----4---4------|----------------|-----------5----|--4-------------|
|-------(4)-4----|--22----------2-|----------------|----44--000-2---|
|-2--------------|------------2---|-3---3--33-----2|--------------0-|
|---------------0|-----0--0-0-----|----------------|----------------|

 Chorus 1
|----------------|------------11--|----------------|----------------|
|----------------|--4--222-4------|-----------11---|--2-------5---7-|
|-2---2---2-4-5--|----------------|----------------|----------------|
|---------------2|---------------9|-----9---9-----0|----222-3---5---|

|----------------|------------11-11----------------|----------------|
|----------------|--4--222-4------|-----------11---|--2---4---5---7-|
|-2---2---2-4-5--|----------------|----------------|----------------|
|---------------2|----------------|-9---9---9-----0|----2---3---5---|

|----------------|------------11--|----------------|----------------|
|----------------|--4--222-4------|-----------11---|--2---4---5---7-|
|-2---2---2-4-5--|----------------|----------------|----------------|
|---------------2|---------------9|-----9---9-----0|----2---3---5---|

|----------------|------------11-11----------------|----------------|
|----------------|--4--222-4------|-----------11---|--2---4---5---7-|
|-2---2---2-4-5--|----------------|----------------|----------------|
|---------------2|----------------|-9---9---9-----0|----2---3---5---|

 Verse 2
|-----4---4------|----------------|-----------5----|--4-------------|
|----------------|--2-----------2-|----------------|--------------0-|
|-2---------2----|------------2---|-3---3---3-----2|----2-2-200-2---|
|---------------0|----0-0-0-0-----|----------------|----------------|

|-----4---4------|----------------|---------5------|--4---2---------|
|--------4--4----|--22----------2-|-----------5----|----4---000-2---|
|-2--------------|--------222-2---|-3---3---------2|--------------0-|
|---------------0|------0---------|----------------|----------------|

|-----4----------|----------------|-----------5----|--4---------4---|
|----------------|--2---------2---|----------------|----4-4-2-4---4-|
|-2-------222----|----------------|-3---3---3-----2|----------------|
|---------------0|----0-0-0-0---0-|----------------|----------------|

|-----4-----4----|----------------|------------5---|--44-22-------2-|
|----------------|--22----------2-|----------------|--------222-0---|
|-2-------2------|------------2---|-3---3---3-----2|----------------|
|---------------0|-----0--0-0-----|----------------|----------------|

 Chorus 2
|----------------|------------11--|----------------|--------------7-|
|----------------|--4--222-4------|-----------11---|--2---4---5-----|
|-2---2---2-4-5--|----------------|----------------|----------------|
|---------------2|---------------9|-----9---9-----0|----2---3---5---|

|----------------|------------11--|----------------|----------2-----|
|----------------|--4--222-4------|-----------11---|--2---4---------|
|-2---2---2-4-5--|----------------|----------------|----------------|
|---------------2|---------------9|-----9---9-----0|----2---3-------|

|----------------|------------11-11----------------|----------------| Play twice, 2nd time instead
|----------------|--4--222-4------|-----------11---|--2---4---5(7)7-| of the last octave 5&7 play the
|-2---2---2-4-5--|----------------|----------------|----------------| note 7 in brackets.
|---------------2|----------------|-9---9---9-----0|----2---3---5---|

 Break.. (play 4 times, each time use the different ending)
|------------------4------|-------------------------|------------------5------|------------------4-----2-|
|-------------------------|------------------2------|-------------------------|--------------------------|
|-2-2-2-2-2--2--2---------|-------------------------|-3-3-3-3-3--3--3---------|-2-2-2-2-2--2--2-----0----| 
|-------------------------|-0-0-0-0-0--0--0---------|-------------------------|--------------------------|

                                                                                             ----4-----7-|
                                                                                             ------------|
                                                                     ending 2 (2nd time) ->  -2----------| 

                                                                                             ----4-------|
                                                                                             ------------|
 ..and back to chorus                                                ending 3 (3rd time) ->  -2-----0----|
|-23\-----| 
|-----10\-| Slide from 23rd fret and then                                                    ------------|
|---------| continue on the D-string.                                                        ------------|
|---------|                                                          ending 24(4th time) ->  -8\---------| 

 Last Chorus
|----------------|------------11--|----------------|----------------|
|----------------|--4--222-4------|-----------11---|--2-------5-----|
|-2---2---2-4-5--|----------------|----------------|------------000-|
|---------------2|---------------9|-----9--99-----0|----222-3-------|

|----------------|------------11--|----------------|-----------11-11|
|----------------|--4--222-4------|-----------11---|--2-------------|
|-2---2---2-4-5--|----------------|----------------|--------/9------|
|---------------2|---------------9|-----9---9-----0|----2-0---------|

|----------------|------------11--|----------------|----------------|
|----------------|--4--222-4------|-----------11---|--2-------------|
|-2---2---2-4-5--|----------------|----------------|----------------|
|---------------2|---------------9|-----9---9-----0|----222-3---333-|

|----------------|------------11-11----------------|----------------|
|----------------|--4--222-4------|-----------11---|--2---4---5---7-|
|-2---2---2-4-5--|----------------|----------------|----------------|
|---------------2|----------------|-9---9---9-----0|----2---3---5---|
  
|----------------|------------11--|----------------|--------------2-|
|----------------|--4--222-4------|-----------11---|--2---4----4----|
|-2---2---2-4-5--|----------------|----------------|----------------|
|---------------2|---------------9|-----9--99-----0|----2---3-------|

|----------------|------------11--|----------------|----------------|
|----------------|--4--222-4------|-----------11---|--2---4---5---7-|
|-2---2---2-4-5--|----------------|----------------|----------------|
|---------------2|---------------9|-----9---9-----0|----2---3---5---|

|----------------|------------11-11----------------|----------------|
|----------------|--4--222-4------|-----------11---|--2---4---5-----|
|-2---2---2-4-5--|----------------|----------------|----------------|
|---------------2|----------------|-9---9---9-----0|----2---3-------|





Comments


Popular Jamiroquai tabs & chords
High Times Bass Tabs
Mr Boogie Bass Tabs
Revolution 1993 Bass Tabs
Revolution 1993 3 Bass Tabs
Travelling Without Moving 1 Bass Tabs
We Gettin Down Live Bass Tabs
Love Foolosophy Chords
Black Devil Car Tabs
Feels Just Like It Should Tabs
Manifest Destiny Tabs


Song lyrics



↑ Back to top | Tablatures and chords are parodies/interpretations of the original songs. You may use it for private study, scholarship, research or language learning purposes only
© 2014 AZChords.com Contact us | Privacy policy | DMCA | Add/correct tabs | Request tabs | Top 50 tabs