» » »

Journey To Arnhemland Bass tabs (ver.1)

Artists:  A B C D E F G H I J K L M N O P Q R S T U V W X Y Z # 

Journey To Arnhemland Bass tabs (ver.1)

Jamiroquai
Rating:
0/5 (0 votes)

Hard to play? Try these video lessons and learn fast.
                Intro 
G|------|
D|------|   Fast slide only played right after
A|------|   intro and after 2nd and 3rd chorus
E|-18/1-|

  Verse var.1
G|------------------------------|
D|------------------------------|
A|------------------------------|
E|-1-1----1-1-----1------1------|
  
  Verse var.2
G|------------------------------|
D|------------------------------|
A|------------------------------|
E|-1-1----1-1-----1-1-1-1--1-1--|

  Verse var.3
G|---------------------------------|
D|----------------3-3-3-3----------|   
A|---------------------------------|  
E|-1-1----1-1--------------1-1-1-1-|   

  Chorus
G|------------------------------|
D|----------------------10--10--|  
A|---------------8-8--m---------|   
E|-6-6--m-9-9--m----------------|

  Verse var.4
G|---------------------------------|
D|----------------3-3-3-3--3-3-3-3-|   
A|---------------------------------|   
E|-1-1----1-1----------------------|
            
Hard to play? Try these video lessons and learn fast. | Correct




comments powered by Disqus
↑ Back to top | Tablatures and chords are parodies/interpretations of the original songs. You may use it for private study, scholarship, research or language learning purposes only