>
 >
Half The Man

Half The Man Guitar Tabs

Jamiroquai - Half The Man chords, tabs, tablatures, lyrics

Guitar lessons | Add/correct | Request | Top 50 tabs Artists:  A B C D E F G H I J K L M N O P Q R S T U V W X Y Z 0-9

Half The Man Guitar Tabs – Jamiroquai

CD, Sheet music, Poster

Do you like Half The Man? Share with your friends now
TabsTabs v2

************************************************************************
Verse and Chorus Chords

           D7			G7	      Bb6-5         A7
|---------|  |---------|  |---------|  |---------|  |---------|
|----7----|  |----7----|  |----3----|  |----5----|  |----5----|
|----5----|  |----5----|  |----4----|  |----7----|  |----6----|
|----7----|or|----4----|  |----3----|  |----5----|  |----5----|
|----5----|  |----5----|  |---------|  |---------|  |---------|
|---------|  |---------|  |----3----|  |----6----|  |----5----|

Interlude Chords

    A13	    Dadd9		 G7	       A11
|---------|  |---------|  |---------|  |---------|
|----7----|  |----5----|  |----3----|  |----3----|
|----6----|  |----7----|  |----4----|  |----4----|
|----5----|  |----7----|  |----3----|  |----5----|
|---------|  |----5----|  |---------|  |---------|
|----5----|  |---------|  |----3----|  |----5----|

Verse 2

	     E7		       A7		 C6-5          B7
|---------|  |---------|  |---------|  |---------|  |---------|
|----9----|  |----9----|  |----5----|  |----7----|  |----7----|
|----7----|  |----7----|  |----6----|  |----9----|  |----8----|
|----9----|or|----6----|  |----5----|  |----7----|  |----7----|
|----7----|  |----7----|  |---------|  |---------|  |---------|
|---------|  |---------|  |----5----|  |----8----|  |----7----|

Ending Chords

     D7           G7		A11		  A7        D13#11
|---------|  |---------|  |---------|  |---------|  |----7----|
|----7----|  |----3----|  |----3----|  |----5----|  |----7----|
|----5----|  |----4----|  |----4----|  |----6----|  |----5----|
|----7----|  |----3----|  |----5----|  |----5----|  |----4----|
|----5----|  |---------|  |---------|  |---------|  |----5----|
|---------|  |----3----|  |----5----|  |----5----|  |---------|
************************************************************************

Verse

    D7			G7	    Bb6-5     A7
    Every bird will sing the melody of our love tune. 
D7		  G7	 Bb6-5          A7
Yesterday I was half the man I used to be 
D7			G7	 Bb6-5            A7
maybe that’s because you’re the other half of me. 
D7				G7		Bb6-5         A7
Like the spring in bloom, the summer of our love is soon. 
D7			 G7	     Bb6-5     A7
Every bird will sing the melody of our love tune. 
D7			G7	   Bb6-5     A7
Sent down from above. Unconditionally love. 
D7		   G7	 Bb6-5               A7
Likened to a flower, stronger love grows by the hour. 
D7			G7   Bb6-5          A7
Stormy weather days make us go our separate ways. 
D7		         G7		
Where our love was so at ease. 
        Bb6-5             A7
Now you got me down on my knees.

Interlude

 A13      D7add9     G7      A11  A13         D7add9
|-----7-7-------------------------10-10--------------------|
|-7-7-8-8-10-10-7-----------------12-12-12-12--------------|
|-----7-7-7--7--7-10-9-9-7-7-11-9-------12-12-14-14-11-11--|
|-4-4-----7--7--------------------------------12-12-12-12--|
|--------------------7-7-5-5-9--7--------------------------|
|----------------------------------------------------------|

  G7     A11  A13         D7add9     G7          A11
|-------------10-7-5-10-7-9--9--7-10-10-7---10-7-10-7-10-14|
|------5-----8------------10-10-7-10-7--7-9-7----7----7--15|
|-9--7-7-7--7-------------7--7--7--------------------------|
|------5-9-9-----------------------------------------------|
|-10-------------------------------------------------------|
|----------------------------------------------------------|
   A13         D7add9      G7         A11
|--14-14-12-12-12-12-10-10-12-12-10-7-10-7-10-12-|
|--15-15-12-12-12-12-10-10-12-12-10-8-10-8-10-12-|
|------------------------------------------------|
|--16-16-14-14-14-14-12-12-14-14-12-9-12-9-12-14-|
|------------------------------------------------|
|------------------------------------------------|

End


{D7   G7   Bb6-5    A7}  x12
{D7add9  G7  A11  A7  D13#11}  x1





Comments


Popular Jamiroquai tabs & chords
All Good In The Hood Bass Tabs
Alright Bass Tabs
Journey To Arnhemland Bass Tabs
Space Clav Bass Tabs
Starshild Bass Tabs
Little L Chords
Love Foolosophy Tabs
Virtual Insanity Tabs
Everyday Ukulele
Love Foolosophy 2 Ukulele


Song lyrics



↑ Back to top | Tablatures and chords are parodies/interpretations of the original songs. You may use it for private study, scholarship, research or language learning purposes only
© 2014 AZChords.com Contact us | Privacy policy | DMCA | Add/correct tabs | Request tabs | Top 50 tabs