» » »

Feel So Good Bass tabs (ver.3)

Artists:  A B C D E F G H I J K L M N O P Q R S T U V W X Y Z # 

Feel So Good Bass tabs (ver.3)

Jamiroquai
Rating:
5/5 (1 vote)

Hard to play? Try these video lessons and learn fast.
                -------------------------------------------------------------------------------
-------------------------------------------------------------------------------


Tuning: Standard

Basically mess about in F minor when you get a bit bored

Verse 
G|------1----------------------------|
D|-3-1-----------------0--1--3-3p1-3-|
A|---------1-1------3----------------|
E|--------------4--------------------|

Chorus
G|-10-8------------------------------|
D|------6--8-6----8-6---6---6----6---|
A|-------------6--------------6----6-|
E|-----------------------------------|

Verse

Bridge
G|-10---|
D|------|
A|----8-| x32
E|------|

Chorus

Riff 1
G|---10---10----------------------------|
D|------------8-6----8-6---6---6----6---|
A|-8----8---------6--------------6----6-|
E|--------------------------------------|

Chorus
Verse
Chorus
Riff 1
Chorus


| p  pull-off
===============================================================================
            
Hard to play? Try these video lessons and learn fast. | Correct




comments powered by Disqus
↑ Back to top | Tablatures and chords are parodies/interpretations of the original songs. You may use it for private study, scholarship, research or language learning purposes only