» » »

Everyday Bass tabs (ver.1)

Artists:  A B C D E F G H I J K L M N O P Q R S T U V W X Y Z # 

Everyday Bass tabs (ver.1)

Jamiroquai
Rating:
0/5 (0 votes)
Tabs too difficult? Try these video lessons and learn fast.
                Verse
G-|----------------------------|-----------------|-G
D-|----------------------------|-----------------|-D
A-|-(7)-----7--9-----7-----7-9-|-----------------|-A
E-|-----10---------10---10-----|---7-7---7-7--10-|-E  v.1

                               |--7-7-7--7-7--10-|-E  v.2

                               |-----2---2--12\2-|-E  v.3

   Chorus v.1
G-|---------------------------|-------------|-G
D-|-----2--4------------------|-------------|-D
A-|-----------2-4-----2-4---4-|-------------|-A
E-|-2---------------4-----4---|---0---0--1--|-E v.1
   Chorus v.2
G-|---------------------------|-------------|-G
D-|----2-4--------------------|-------------|-D
A-|--------2-4-----2-4--2---4-|-------------|-A
E-|-2----------2-4--------4---|---0---0--1--|-E v.2
   Chorus v.3 (@3:26)
G-|---------------------------|-------------|-G
D-|----2-4--------------------|--5-4-2----4-|-D
A-|--------2-4-----2-4--2---4-|---------4---|-A
E-|-2----------2-4--------4---|0------------|-E 

   Outro
G-|-------------------|-G
D-|-------------------|-D
A-|-7--7--8-----------|-A
E-|----------7---(10)-|-E
            
Tabs too difficult? Try these video lessons and learn fast.


comments powered by Disqus
↑ Back to top | Tablatures and chords are parodies/interpretations of the original songs. You may use it for private study, scholarship, research or language learning purposes only